>
 >
Spellbound 1

Spellbound 1 Guitar Tabs

Lacuna Coil - Spellbound 1 chords, tabs, tablatures, lyrics

Guitar lessons | Add/correct | Request | Top 50 tabs Artists:  A B C D E F G H I J K L M N O P Q R S T U V W X Y Z 0-9

Spellbound 1 Guitar Tabs – Lacuna Coil

CD, Sheet music, Poster

Do you like Spellbound 1? Share with your friends now
ChordsTabsTabs v2Ukulele
-------------------------------------------------------------------------------
			SPELLBOUND - Lacuna Coil
-------------------------------------------------------------------------------

Tuning: Drop C


This song was a blast to tab. I love this song and I think I've nailed it 100 percent.



Intro:


Guitar 1:

   T-----|   8 8 8   16x
D|-------2-------2---|
A|----3--------3-----|
F|-4---------4-------|
C|-------------------|
G|-------------------|
C|-------------------|


Guitar 2:
					4x
D|-------------------------------------|
A|-------------------------------------|
F|-------------------------------------|
C|--5-3-----5-3-5-3-----5-3-5-3--------|
G|------2-2---------2-2---------2-2----|
C|-------------------------------------|

					 P.M------------|       2x
D|---------------------------------------------------------------|
A|---------------------------------------------------------------|
F|--4--4--4------------------------------------------------------|
C|--4--4--4---5--5---5----2---2--2---0-0---2-2-2--2-2-2----------|
G|--2--2--2---5--5---5----2---2--2---0-0---2-2-2--2-2-2----------|
C|------------5--5---5----2---2--2---0-0---2-2-2--2-2-2----------|



Verse:

Guitar 1:

   T-----|   8 8 8   8x
D|-2---------2-------|
A|----3--------3-----|
F|-------4-------4---|
C|-------------------|
G|-------------------|
C|-------------------|
 


Guitar 2:

			4x
D|-------------------------------------------|
A|-------------------------------------------|
F|-------------------------------------------|
C|-------------------------------------------|
G|-2-2-2-2---2---2------------4-2-4-2--------|
C|-------------------------------------------|
			4x
D|-------------------------------------------|
A|-------------------------------------------|
F|-------------------------------------------|
C|-------------------------------------------|
G|-2-2-2-2---2---2---------------------------|
C|-------------------------------------------|



Both

D|--------------|
A|--------------|
F|-4------------|
C|-x------------|
G|-2------------|
C|--------------|



Chorus:


					 P.M------------|        2x
D|---------------------------------------------------------------|
A|---------------------------------------------------------------|
F|--4--4--4------------------------------------------------------|
C|--4--4--4---5--5---5----2---2--2---0-0---2-2-2--2-2-2----------|
G|--2--2--2---5--5---5----2---2--2---0-0---2-2-2--2-2-2----------|
C|------------5--5---5----2---2--2---0-0---2-2-2--2-2-2----------|

Postchorus:

Both:
					2x
D|-------------------------------------|
A|-------------------------------------|
F|-------------------------------------|
C|--5-3-----5-3-5-3-----5-3-5-3--------|
G|------2-2---------2-2---------2-2----|
C|-------------------------------------|


Verse 2


Chorus 2


Postchorus 2:


Both:
					4x
D|-------------------------------------|
A|-------------------------------------|
F|-------------------------------------|
C|--5-3-----5-3-5-3-----5-3-5-3--------|
G|------2-2---------2-2---------2-2----|
C|-------------------------------------|


Solo:


D|------------------------------------------12-10-14-12---15-14--------------|
A|-12-12-12-12--12-12------7-7-7-7---7-7-----x--x--x--x----x--x--------------|
F|--x--x--x--x---x--x------x-x-x-x---x-x-----9--7-11--9---12-11--------------|
C|--9--9--9--9---9--9------4-4-4-4---4-4-------------------------------------|
G|---------------------------------------------------------------------------|
C|---------------------------------------------------------------------------|


Here he does random harmonics down the neck ending with:

   N.H.
D--------------|
A|-2*----------|
F|-------------|
C|-------------|
G|-------------|
C|-------------|



D|--7-7-7---9-9-9---10-10---12-12-12---14-------14----------19-------14----19----14---------|
A|--x-x-x---x-x-x----x--x----x--x--x----x----------17-17-17----17-17----17----17----17------|
F|--4-4-4---6-6-6----7--7----9--9--9---11----16---------------------------------------------|
C|------------------------------------------------------------------------------------------|
G|------------------------------------------------------------------------------------------|
C|------------------------------------------------------------------------------------------|


D|-14-17p14-14-14-17p14-14-14-17p14-14-14-14---------|
A|---------------------------------------------------|
F|--------------------------------------------x-\----|
C|--------------------------------------------x-\----|
G|--------------------------------------------x-\----|
C|---------------------------------------------------|
						Slide down


Rhythm part:

					 P.M------------|        2x
D|---------------------------------------------------------------|
A|---------------------------------------------------------------|
F|--4--4--4------------------------------------------------------|
C|--4--4--4---5--5---5----2---2--2---0-0---2-2-2--2-2-2----------|
G|--2--2--2---5--5---5----2---2--2---0-0---2-2-2--2-2-2----------|
C|------------5--5---5----2---2--2---0-0---2-2-2--2-2-2----------|



Chorus

Everywhere I goo.... ( chorus part )


End:

D|--------------|
A|--------------|
F|-4-4-4-4------|
C|-4-4-4-4------|
G|-2-2-2-2------|
C|--------------|




There you are.





EXTRA NOTATION

| P.M. ---------| - Palm Mute
| T - Triplet
| 8 - 8th note


| /  slide up
| \  slide down
| h  hammer-on
| p  pull-off
| ~  vibrato
| +  harmonic
| x  Mute note
===============================================================================





Comments


Popular Lacuna Coil tabs & chords
Halflife Bass Tabs
Stars 1 Bass Tabs
Angel's Punishment Tabs
Fragile 2 Tabs
Our Truth 1 Tabs
Spellbound Tabs
To Live Is To Hide Tabs
Trip The Darkness 1 Tabs
Un Fanstasma Tra Noi Tabs
The Secret Ukulele


Song lyrics



↑ Back to top | Tablatures and chords are parodies/interpretations of the original songs. You may use it for private study, scholarship, research or language learning purposes only
© 2014 AZChords.com Contact us | Privacy policy | DMCA | Add/correct tabs | Request tabs | Top 50 tabs