» » »

Lacuna Coil, Soul Into Hades Tabs (ver.3)

Artists:  A B C D E F G H I J K L M N O P Q R S T U V W X Y Z # 

Soul Into Hades Tabs (ver.3)

Lacuna Coil Tabs
Rating:
0/5 (0 votes)
Soul Into Hades lessons Tabs too difficult? Try these video lessons and learn fast
                Intro
Fig 1 (4 times) Fig 1a
|---------------------------------- |------------------------------
|-----0-------0---1-0-------------- |------------------------------
|---2---2---2---2-----2-----4-0---- |------------------------------
|---------2-------------2-3-------- |-------------------7-7-7-7----
|---0-----0-----0-0---0------------ |---7---7-7---7-7-7-7-7-7-7----
|---------------------------------- |---5---5-5---5-5-5-5-5-5-5----


Fig 1b (5 times taking the appropriate ending each time) - Guitar 2

1,2,4_________ 3,5_________

|-------------|--10-----------|-------------|
|---8---10-8--|-----8---------|--6-8--------|
|-----9-------|-------9-------|------9------|
|-------------|---------------|-------------|
|-------------|---------------|-------------|
|-------------|---------------|-------------|

Verse
Fig 2 Fig 2a (clean part)
|------------------------- |---0---1---0---1----
|------------------------- |---0---1---0---1----
|------------------------- |---2---2---2---2----
|------------------------- |---2---3---2---3----
|---7---3---7---3---3-3--- |---0---3---0---3----
|---5---1---5---1---1-1--- |-------1-------1----


Fig 3
|------------------------------------------------------------------------
|------------------------------------------------------------------------
|------------------------------------------------------------------------
|------------------------------------------------------------------------
|---7---7---5..(16 times)..---3---3---2..(8 times)..---5..(8 times)..----
|---5---5---3..............---1---1---0.............---3.............----

pm___________ pm____________ pm____________ 

Bridge
Fig 4
|-----------------------------------------------------------------------------------------
|-----------------------------------------------------------------------------------------
|---5555-4444-5555-4444-------------------------5555-4444-5555-4444-------------1111-0000-
|---5555-5555-5555-5555---6666-5555-6666-5555---5555-5555-5555-5555---6666-5555-3333-3333-
|---3333-3333-3333-3333---6666-6666-6666-6666---3333-3333-3333-3333---6666-6666-1111-1111-
|-------------------------4444-4444-4444-4444-------------------------4444-4444-----------


Interlude
Fig 5
|-------0-----0-----0-----0-----0-----0----
|------------------------------------------
|-----2-----2-----2-----2-----2-----2------
|---------------------0-----------2--------
|---0-----------------------3--------------
|---------3-----1--------------------------

Fig 5a
|------------------------------------------
|------------------------------------------
|------------------------------------------
|---------------------7-----5-----9--------
|---7-----5-----3-----5-----3-----7--------
|---5-----3-----1--------------------------

Solo
Fig 6 (2 times)
|-----------------------------------------------------------------
|---5---------------------------5-3h5p3-------------------777-----
|-----7-5-4h5p4h5p4-----4-4-5h7---------5p4-----4-5-7-5-4---------
|-------------------5h7---------------------5-7-------------------
|-----------------------------------------------------------------
|-----------------------------------------------------------------

Outro
Fig 7 (2 times)
|---------------------------------------------------------------
|---------------------------------------------------------------
|---------------------------------------------------------------
|-------------------7--7----------------------------------------
|---7--7----3--3----5--5----3..(8 times)..----5..(8 times)..----
|---5--5----1--1------------1.............----3.............----

pm____________ pm____________

Fig 7a
|--------------
|--------------
|--------------
|---7~---------
|---7~----7----
|---5~----5----
            

comments powered by Disqus
↑ Back to top | Lacuna Coil Tabs for Soul Into Hades. Lyrics for acoustic guitar and electric guitar. Tablatures and chords are parodies/interpretations of the original songs. You may use it for private study, scholarship, research or language learning purposes only