» » »

Lacuna Coil, Soul Into Hades Tabs (ver.2)

Artists:  A B C D E F G H I J K L M N O P Q R S T U V W X Y Z # 

Soul Into Hades Tabs (ver.2)

Lacuna Coil Tabs
 Rating:
4/5 (4 votes)
Soul Into Hades lessons Tabs too difficult? Try these video lessons and learn fast
1
                Band - Lacuna Coil
Album - Lacuna Coil
Song - Soul Into Hades
Tuning - E - Low to High (EADGBe)

 Intro: Gtr.1 Prt.1
e|----------------------------------|
B|-----0-------0---1-0--------------|
G|---2---2---2---2-----2-----4-0----|
D|---------2-------------2-3--------|
A|----------------------------------|
E|----------------------------------|

 Prt.2
e|----------------------------|
B|----------------------------|
G|----------------------------|
D|----------------------------|
A|-7---77-77---7-7-7-7-7-7-77-|
E|-5---55-55---5-5-5-5-5-5-55-|
              . . . . . .

 Gtr.2	        1,2,4           3,5
e|-------------|--10-----------|-------------|
B|---8---10-8--|-----8---------|--6-8--------|
G|-----9-------|-------9-------|------9------|
D|-------------|---------------|-------------|
A|-------------|---------------|-------------|
E|-------------|---------------|-------------|

 Verse: Gtr.1
e|---------------------|
B|---------------------|
G|---------------------|
D|---------------------|
A|-7---3---7---3---3-3-|
E|-5---1---5---1---1-1-|

 Gtr.2
e|-0-1-0-1-|
B|-0-1-0-1-|
G|-2-2-2-2-|
D|-2-3-2-3-|
A|-0-3-0-3-|
E|---1-1---|

 Chorus:
e|-----------------------------------------|
B|-----------------------------------------|
G|-----------------------------------------|
D|-----------------------------------------|
A|-7---7---5-5-5-5-5-5-5-5-5-5-5-5-5-5-5-5-|
E|-5---5---3-3-3-3-3-3-3-3-3-3-3-3-3-3-3-3-|
 p.m.      . . . . . . . . . . . . . . . .
    
e|-----------------------------------------|
G|-----------------------------------------|
B|-----------------------------------------|
D|-----------------------------------------|
A|-3---3---2-2-2-2-2-2-2-2-5-5-5-5-5-5-5-5-|
E|-1---1---0-0-0-0-0-0-0-0-3-3-3-3-3-3-3-3-|
 p.m.      . . . . . . . . . . . . . . . .

 Bridge:
e|--------------------------------------------------------------------------|
G|--------------------------------------------------------------------------|
B|5555444455554444----------------------5555444455554444--------------------|
D|5555555555555555---6666555566665555---5555555555555555---6666555566665555-|
A|3333333333333333---6666666666666666---3333333333333333---6666666666666666-|
E|-------------------4444444444444444----------------------4444444444444444-|


 Interlude:
e|-------0-----0-----0-----0-----0-----0----|
B|------------------------------------------|
G|-----2-----2-----2-----2-----2-----2------|
D|---------------------0-----------2--------|
A|---0-----------------------3--------------|
E|---------3-----1--------------------------|

e|------------------------------------------|
B|------------------------------------------|
G|------------------------------------------|
D|---------------------7-----5-----9--------|
A|---7-----5-----3-----5-----3-----7--------|
E|---5-----3-----1--------------------------|

 Solo:
e|---------------------------------------------------------|
B|-5---------------------------------5-3-------------------|
G|---7-5-4h5p4h5p4-----4h5p4h5p4-5h7-----5-4-----4-5-7-5-4-|
D|-----------------5h7-----------------------5-7-----------|
A|---------------------------------------------------------|
E|---------------------------------------------------------|

e|-------------------------------------------------------------7-|
B|-5---------------------------------5-3h5p3---------------------|
G|---7-5-4h5p4h5p4-----4h5p4h5p4-5h7---------5p4-----4-5-7-5-4---|
D|-----------------5h7---------------------------5-7-------------|
A|---------------------------------------------------------------|
E|---------------------------------------------------------------|

Outro Gtr.1
e|---------------------------------------------------------|
B|---------------------------------------------------------|
G|---------------------------------------------------------| 2x
D|-----------------7--7------------------------------------|
A|-7--7----3--3----5--5----3-3-3-3-3-3-3-3-5-5-5-5-5-5-5-5-|
E|-5--5----1--1------------1-1-1-1-1-1-1-1-3-3-3-3-3-3-3-3-|
                             . .   . .   . . . .   . . . .
e|---------|
B|---------|
G|---------|
D|-7~------|
A|-7~----7-|
E|-5~----5-|

Gtr.2
|----------------------------------------------------------|
|------------------------------8-----8---------9-----9-----|
|--7-7-7-7-8-8-8-8-8-8-8-8---8---8-----8-----8---8-----8---| 2x
|-----------------6-6-6-6--6-------6-----6-6-------6-----8-|
|-0-0-0-0-0-0-0-0------------------------------------------|
|----------------------------------------------------------|

There are more guitar parts and I will add them as I figure them out, but they're
really quiet and hard to hear
            
Submit corrections

comments powered by Disqus
↑ Back to top | Lacuna Coil Tabs for Soul Into Hades. Lyrics for acoustic guitar and electric guitar. 1 Tablatures and chords are parodies/interpretations of the original songs. You may use it for private study, scholarship, research or language learning purposes only