» » »

Lacuna Coil, Senzafine Bass tabs (ver.1)

Artists:  A B C D E F G H I J K L M N O P Q R S T U V W X Y Z # 

Senzafine Bass tabs (ver.1)

Lacuna Coil Tabs
 Rating:
4/5 (4 votes)
Senzafine lessons Tabs too difficult? Try these video lessons and learn fast
                any questions or comments: 


G----------------------------------
D----------------------------------
A--------7------7-----7----7----
E--------0------0-----0----0----
Intro and verses

G-------------------------------
D-------------------------------
A---0---------------------------
E--------3-------0-------3----
chorus

G------------------------------------------------
D------------------------------------------------
A----------------5-------------------5----------
E----3--3--3------------3--3--3--------0----
       "Madre!!!!!!!!!" (at 1:00)

G---------------------------------------------------
D---------------------------------------------------
A---------------5------------------5---------2----
E---3--3--3-----------3--3--3--------3---------
2nd part of the "madre" break


Hope you enjoy and as usual m
            
Submit corrections

comments powered by Disqus
↑ Back to top | Lacuna Coil Bass for Senzafine. Lyrics for acoustic guitar and electric guitar. Tablatures and chords are parodies/interpretations of the original songs. You may use it for private study, scholarship, research or language learning purposes only