» » »

Self Deception Bass tabs (ver.1)

Artists:  A B C D E F G H I J K L M N O P Q R S T U V W X Y Z # 

Self Deception Bass tabs (ver.1)

Lacuna Coil
Rating:
0/5 (0 votes)

Hard to play? Try these video lessons and learn fast.
                (1)
G--------------------------------------------------------------------------
D--------------------------------------------------------------------------
A--------------------------------------------------------------------------
E---3---3--3--3-----------------------------------------1---1--1--1--
B---------------------1---1--1--1----4---4--4--4---------------------
intro

G-------------------------------------------------------------------------------------------------
D-------------------------------------------------------------------------------------------------
A-------------------------------------------------------------------------------------------------
E--3-3-3-3-3-3-3-3--------------------------------------------------------------------------
B---------------------------1-1-1-1-1-1-1-1---4-4-4-4-4-4-4-4---6-6-6-6-6-6-6-6--
verse riff

G----------------------
D-------------1----3--
A--------3-------------
E--3-------------------
B----------------------
break#1 @ 00:42

G----------------------|------------------------
D----------------------|---------------1----3--
A--------3-------------|---------3-------------
E--3-------------------|---3-------------------
B--------------4----6-|------------------------
break#2 @ 1:01

G-----------------------------
D-----------------------------
A-----------------------------
E---3-----------1---1-------
B--------1--1------------4--
chorus

G--------------------------------------------------------------
D--------------------------------------------------------------
A--------------------------------------------------------------
E---3-3-3-3-3-3-3-3------3---3-3---3--3--3---3--3--
B--------------------------------------------------------------
end riff

song order:
Intro X1
verse riff X 2
break#1 x1
verse riff X2
break#2 X1
chorus X 4
intro riff X 2
verse riff X 2
break#1 X 2
chorus X 8
end riff X 4
chorus X 2
            
Hard to play? Try these video lessons and learn fast. | Correct




comments powered by Disqus
↑ Back to top | Tablatures and chords are parodies/interpretations of the original songs. You may use it for private study, scholarship, research or language learning purposes only