» » »

Lacuna Coil, Purify Bass tabs (ver.1)

Artists:  A B C D E F G H I J K L M N O P Q R S T U V W X Y Z # 

Purify Bass tabs (ver.1)

Lacuna Coil Tabs
 Rating:
4/5 (4 votes)
Purify lessons Tabs too difficult? Try these video lessons and learn fast
1
                Lacuna Coil – Purify (Bass by TynB)


Intro

G|----------------------------------------|
D|----------------------------------------|
A|----------------------------------------|
E|--0~-------0~-------0~------0~------0~--|


Verse

G|---------------------------------------------------|
D|---------------------------------------------------|
A|--------3---2-5-----3---------5-3---2-----5-3---2--|
E|--0---3-----------3-------0-----------3------------|


Bridge

G|---------------------|
D|------------5--------|
A|----------5-3-2-3----|
E|--3---3-----------0--|


Chorus

G|-------------------------|
D|-------------------------|
A|----------5~----------3~-|
E|--0~--3~------3~--3~-----|

Enjoy this nice song of In a Reverie, you should buy this album if you like this song! Please rate this tab, because I believe it’s 99,5% all right. Thanks and Greetz TynB w w w .ingrate. tk
The verse is not really difficult but I’m not sure about the timing of the tab, figure it out yourself and enjoy :)
            
Submit corrections

comments powered by Disqus
↑ Back to top | Lacuna Coil Bass for Purify. Lyrics for acoustic guitar and electric guitar. 1 Tablatures and chords are parodies/interpretations of the original songs. You may use it for private study, scholarship, research or language learning purposes only