» » »

Honeymoon Suite Bass tabs (ver.1)

Artists:  A B C D E F G H I J K L M N O P Q R S T U V W X Y Z # 

Honeymoon Suite Bass tabs (ver.1)

Lacuna Coil
Rating:
0/5 (0 votes)

Hard to play? Try these video lessons and learn fast.
                Lacuna Coil - Honeymoon Suite (Bass by TynB)

Please rate this tab!

Verse
‘close your eyes...’
G---------------------------------|
D---------------------------------|
A-----------------5-5---3--3-3-3--|
E--5-5---3--3-3-3-----------------|


Pre-chorus
‘Won’t you take me back’
G-----------------|
D-----------------|
A-----------------|
E--5-5/3-3/2-2/1--|


Chorus
‘Get out of my life...”
G--------------------|
D--------------------|
A-------------3---1--|
E--3---1-------------|


Bridge
G---------------------|
D---------------------|
A---------------------|
E--5-5/10------1-1/3--|


Ending
G------|
D------|
A--0~--|
E------|

Enjoy this nice song of In a Reverie, you should buy this album if you like this song! Please rate this tab, because I believe it’s 99,5% all right. Thanks and Greetz TynB w w w .ingrate. tk
            
Hard to play? Try these video lessons and learn fast. | Correct




comments powered by Disqus
↑ Back to top | Tablatures and chords are parodies/interpretations of the original songs. You may use it for private study, scholarship, research or language learning purposes only