» » »

Heaven's A Lie Bass tabs (ver.2)

Artists:  A B C D E F G H I J K L M N O P Q R S T U V W X Y Z # 

Heaven's A Lie Bass tabs (ver.2)

Lacuna Coil
Rating:
4/5 (3 votes)
Tabs too difficult? Try these video lessons and learn fast.
                
Tuning E
Tuning: E-A-D-G

00:00		(guitar intro)

00:17		(followed by other instruments)
Intro:
|--------------|
|--------------|
|---3----------|
|-0------5-3-2-|

00:45
Verse1:
|------------------------------------------------------|
|------------------------------------------------------|
|-----------3-3-3-3-3----------------------------------|
|-0-0-0-0-0--------------5-5-5-5-5-3-3-3-3-3-2-2-2-2-2-|

01:12
Pre-Chorus:
|------------------------------------------------|
|------------------------------------------------|
|-7-7-7777---------------------------------------|
|----------3-3-3-333333-3-3-3333-2-2-2-22-555555-|

01:27
Chorus:
|--------------|
|--------------|
|---3----------|
|-0------5-3-2-|

01:55		(before verse2)
|--------------------------------|
|--------------------------------|
|-7-7-7--------------------------|
|-------3-3-3-3--2-2-2-3-3-3-5-5-|

02:09
Verse2:
|------------------------------------------------------|
|------------------------------------------------------|
|-----------3-3-3-3-3----------------------------------|
|-0-0-0-0-0--------------5-5-5-5-5-3-3-3-3-3-2-2-2-2-2-|

02:36
Pre-Chorus:
|------------------------------------------------|
|------------------------------------------------|
|-7-7-7777---------------------------------------|
|----------3-3-3-333333-3-3-3333-2-2-2-22-555555-|

02:51
Chorus:
|--------------|
|--------------|
|---3----------|
|-0------5-3-2-|

03:19
Bridge?... whatsoever...
|------------------------------------------------|
|------------------------------------------------|
|-7-7-7777---------------------------------------|
|----------3-3-3-333333-3-3-3333-2-2-2-22-555555-|

04:00
Chorus:
|--------------|
|--------------|
|---3----------|
|-0------5-3-2-|


any of these are welcome :) enjoy!
            
Tabs too difficult? Try these video lessons and learn fast.


comments powered by Disqus
↑ Back to top | Tablatures and chords are parodies/interpretations of the original songs. You may use it for private study, scholarship, research or language learning purposes only