» » »

Lacuna Coil, Comalies Tabs (ver.2)

Artists:  A B C D E F G H I J K L M N O P Q R S T U V W X Y Z # 

Comalies Tabs (ver.2)

Lacuna Coil Tabs
Rating:
0/5 (0 votes)
Comalies lessons Tabs too difficult? Try these video lessons and learn fast
                Lacuna Coil - Comalies  

Great song this one!! This was the first Lacuna's song i heard, and is my first tab.  In this 

tab, 'verse' is the "italian" part, 'prechorus' is the 'walk on by' part and 'chorus' is the 

'wandering from you' part.

~ = vibrato

Guitar 1 (clean)
 Intro, verse and chorus:
 e|------------13-------------12----------13-------12---||
 B|-----------------------------------------------------||
 G|------12-14----14-12----12----14-12-14----14-12------||
 D|---12----------------12------------------------------||
 A|-----------------------------------------------------||
 E|-----------------------------------------------------||


Guitar 2 (distortion, a lot of distortion)
 Intro:
 e|---------------------------------------|------------------------------------------||
 B|---------------------------------------|------------------------------------------||
 G|-7~------------------------------------|-7~---------------------------------------||
 D|-----7~--5-7-8~---7-5-3~--5~--2~-------|------5-7-8~----7-5-3~---5--2~---3--5-----||
 A|---------------------------------3--5~-|--------------------------------------(5)-||
 E|---------------------------------------|------------------------------------------||
                                                                     (5)=only the last time
 Verse:
 e|---------------------------------|                   
 B|---------------------------------|                   
 G|-7-7-7-7-7-5-5-5-5-7-7-7-7-5-5-5-|                   
 D|-5-5-5-5-5-5-5-5-5-5-5-5-5-5-5-5-|                   
 A|-7-7-7-7-7-7-7-7-7-7-7-7-7-7-7-7-|                   
 E|---------------------------------| three times, then 

 e|----------------------------------------||
 B|----------------------------------------||
 G|-7-7-7-7-7-5-5-5-5-14-14-14-14-12-12-12-||
 D|-5-5-5-5-5-5-5-5-5-12-12-12-12-12-12-12-||
 A|-7-7-7-7-7-7-7-7-7----------------------||
 E|----------------------------------------||

 Prechorus:
 e|-------------------------------------|                   |----------------||
 B|-------------------------------------|                   |----------------||
 G|-12h14-12-9--9-9-9-10--10-10-7-7-5-5-|                   |-9------10----5-||
 D|--0--0--0-0--0-0-0--0---0--0-0-0-0-0-|                   |-7------10----5-||
 A|-------------------------------------|                   |-7-------8----3-||
 E|-------------------------------------| three times, then |----------------||

 Chorus:
 e|---------------------------||
 B|---------------------------||
 G|-7-------------------------||
 D|-7-------8-------7-------3-||
 A|-5-------8-------7-------3-||
 E|---------6-------5-------1-||
 
            
Submit corrections

comments powered by Disqus
↑ Back to top | Lacuna Coil Tabs for Comalies. Lyrics for acoustic guitar and electric guitar. Tablatures and chords are parodies/interpretations of the original songs. You may use it for private study, scholarship, research or language learning purposes only