» » »

Lacuna Coil, Comalies Tabs (ver.1)

Artists:  A B C D E F G H I J K L M N O P Q R S T U V W X Y Z # 

Comalies Tabs (ver.1)

Lacuna Coil Tabs
 Rating:
4/5 (4 votes)
Comalies lessons Tabs too difficult? Try these video lessons and learn fast
1
                Band- Lacuna Coil
Song- Comalies

(Guitar 1 (clean))
(0:00-1:22) & (1:37-2:39) & (2:54-4:39)

|------------13-------------12----------13-------12---||
|-----------------------------------------------------||
|------12-14----14-12----12----14-12-14----14-12------||
|---12----------------12------------------------------||
|-----------------------------------------------------||
|-----------------------------------------------------||


(Guitar 2 (dist.))
(0:00-0:45) & (3:25-4:39)

|--------------------------------------------------|-------------------------------------------||
|--------------------------------------------------|-------------------------------------------||
|---7^^--------------------------------------------|---7^^-------------------------------------||
|-------7^^--5-7-8^^---7-5-3^^--5^^--2^^-----------|-------5-7-8^^---7-5-3^^--5--2^^--3^^--5---||
|----------------------------------------3-/-5^^---|-------------------------------------------||
|--------------------------------------------------|-------------------------------------------||


(Guitar 3 (dist.))
(0:15-0:45) & (1:52-2:07) & (3:09-3:24) & (3:54-4:39)

|-----------------------|-------
|-----------------------|-------
|---7-------------------|-------
|---7---8---7---3-------|---0---
|---5---8---7---3-------|---0---
|-------8---7---3-------|---0---

			(only 0:45 & 4:39)


(Guitar 2 (dist.))
(1:07-1:36) & (2:24-2:53)

|--------------------------------------------------||
|--------------------------------------------------||
|---7777777777777777/101010109999/14141414121212---||
|---5555555555555555/8-8-8-8-8888/12121212121212---||  (Repeat 2 times then go to Fig B)
|--------------------------------------------------||
|--------------------------------------------------||

Fig B (Guitar 2)							Fig C
|-------------------------------------||				|----------------
|-------------------------------------||				|----------------
|---7777/1010101010/14141414-121212---||				|----------------
|---5555/8-8-8-8-8-/12121212-121212---||  (Repeat 2 times then --->	|----------------
|-------------------------------------||				|---7^^-8--3^^\--
|-------------------------------------||				|----------------

Fig B (Guitar 1) (this part can't really be heard too well so this is a guess)
|-------------------------------------||
|-------------------------------------||
|---7777-10-9-10-7-9-7-5-7-5----------||
|---5555---------------------7-5-7----||  (Repeat 2 times)
|-------------------------------------||
|-------------------------------------||


(Guitar 1 (clean))
(4:39-4:55)

|---------1---------0-------1-----0---||					|-------|
|---------------3---------------------||					|---3---|
|-----0-2---2-0---0---2-0-2---2-0-----||					|---2---|
|---0---------------------------------||  (Repeat 2 times and end with --->	|---0---|
|-------------------------------------||					|---0---|
|-------------------------------------||					|-------|
            
Submit corrections

comments powered by Disqus
↑ Back to top | Lacuna Coil Tabs for Comalies. Lyrics for acoustic guitar and electric guitar. 1 Tablatures and chords are parodies/interpretations of the original songs. You may use it for private study, scholarship, research or language learning purposes only