» » »

Lacuna Coil, Closer Tabs (ver.3)

Artists:  A B C D E F G H I J K L M N O P Q R S T U V W X Y Z # 

Closer Tabs (ver.3)

Lacuna Coil Tabs
Rating:
3/5 (1 vote)
Closer lessons Tabs too difficult? Try these video lessons and learn fast
                Lacuna Coil - Closer
Tuning: Standard (The Band actually play ESP 7 String Baritone's) BEADGBE

My first tab .. blah blah ... this is my version I only have a six.
If you have a seven play the verse's C5 and D5 one octave lower.

------
------

PM any questions/corrections thanks, rate please.

Bass Riff...
Rest for Guitar

----------

Intro/Chorus
e|-----------------|-----------------|-----------------|-----------------|
B|-----------------|-----------------|-----------------|-----------------|:
G|-----------------|-----------------|-----------------|-----------------|
D|-----------7-7-7-|-7-7-7-7---------|-----------7-7-7-|-7-7-7-7---------|
A|-7-7-7-7-7-5-5-5-|-5-5-5-5-5-5-5-5-|-7-7-7-7-7-5-5-5-|-5-5-5-5-5-5-5-5-|:
E|-5-5-5-5-5-------|---------3-3-3-3-|-5-5-5-5-5-------|---------3-3-3-3-|x2

Intro/Chorus Snyth
e|------15-15-13-13|-----------------|------15-15-13-13|------------12-12|
B|-----------------|--15-13-15--15-15|-----------------|--15-13-15-------|
G|14-14------------|-----------------|14-14------------|-----------------|
D|-----------------|14---------------|-----------------|14---------------|
A|-----------------|-----------------|-----------------|-----------------|
E|-----------------|-----------------|-----------------|-----------------|

----------

Verse
e|-----------------|-----------------|-----------------|-----------------|
B|-----------------|-----------------|-----------------|-----------------|:
G|-----------------|-----------------|-----------------|-----------------|
D|-----------------|-7---7-----5-3-3-|-5---------------|-7---7---5-3-3-2-|
A|-7-------5---5---|-5---5-----3-3-3-|-5---7---5---5---|-5---5---3-3-3-2-|:
E|-5-------3---3---|-----------------|-----5---3---3---|-----------------|x3

e|-----------------|-----------------|-----------------|-----------------|
B|-----------------|-----------------|-----------------|-----------------|
G|-----------------|-----------------|-----------------|-----------------|
D|-----------------|-7---7-----5-3-3-|-----------------|---5~~~~~~~~~~~~-|
A|-7-------5---5---|-5---5-----3-3-3-|-7--7--7-5--5--5-|5--3~~~~~~~~~~~~-|
E|-5-------3---3---|-----------------|-5--5--5-3--3--3-|3----------------|

                                                          


Riff Played over Chorus at the end.
e|--------------------------------|
B|--------------------------------|:
G|----------9----------9----------|
D|-7-9-10-7---7-9-10-7---7-9-10-7-|
A|--------------------------------|:
E|--------------------------------|x4...rest...x4

Bass Riff
Rest for Guitar
End..
            
Submit corrections

comments powered by Disqus
↑ Back to top | Lacuna Coil Tabs for Closer. Lyrics for acoustic guitar and electric guitar. Tablatures and chords are parodies/interpretations of the original songs. You may use it for private study, scholarship, research or language learning purposes only