» » »

Closer Tabs (ver.1)

Artists:  A B C D E F G H I J K L M N O P Q R S T U V W X Y Z # 

Closer Tabs (ver.1)

Lacuna Coil
Rating:
3/5 (6 votes)

Hard to play? Try these video lessons and learn fast.
                This is as close as i have been able to get with the song.  This is my first tab so dont 
to mad if it is completely off.

E----------------------------------|
B----------------------------------|
G-----------7-7-7-7-7-7-7----------|
D--7-7-7-7--7-7-7-7-7-7-7--5-5-5-5-|
A--7-7-7-7--5-5-5-5-5-5-5--5-5-5-5-|
E--5-5-5-5-----------------3-3-3-3-|
B----------------------------------|

Verse:
E---------------------|
B---------------------|
G------------2--------|
D--7-5-------2-5------|
A--7-5--5-3--0-5--5-3-|
E--5-3--5-3----3--5-3-|
B-------3-1-------3-1-|
            
Hard to play? Try these video lessons and learn fast. | Correct




comments powered by Disqus
↑ Back to top | Tablatures and chords are parodies/interpretations of the original songs. You may use it for private study, scholarship, research or language learning purposes only