» » »

Circle Bass tabs (ver.2)

Artists:  A B C D E F G H I J K L M N O P Q R S T U V W X Y Z # 

Circle Bass tabs (ver.2)

Lacuna Coil
Rating:
0/5 (0 votes)

Hard to play? Try these video lessons and learn fast.
                Intro:
|----------------------|
|----------------------|
|-0--------------------| 4x
|------1----0----3-----|
|----------------------|

Verse:
|-------------------------------------|
|-------------------------------------|
|-00000000----------------------------| 2x
|----------11111111-00000000-33333333-|
|-------------------------------------|

Bridge:
|---------------------------------------------|
|---------------------------------------------|
|---------------------------------------------|
|-----3-4-6--1---3-4-6------3-4-6--1---3-4-6--|
|-1---------------------1---------------------|

Chorus:
|--------------------|
|--------------------|
|--------0-1-11------| 4x
|--------------------|
|-3-3-33--------1111-|

Intro 3x

Verse 2x

Bridge

Chorus 8x

Interlude:
|-------------------------------------------------------------------------|
|-------------------------------------------------------------------------|
|-0------------0------------0------0------0---0---0---0---0-0-0-0-0-0-0-0-|
|-------------------------------------------------------------------------|
|-------------------------------------------------------------------------|

Chorus 8x

End:
|--------------|
|--------------|
|--------------|
|--------------|
|-3-(let ring)-|
            
Hard to play? Try these video lessons and learn fast. | Correct




comments powered by Disqus
↑ Back to top | Tablatures and chords are parodies/interpretations of the original songs. You may use it for private study, scholarship, research or language learning purposes only