» » »

Angel's Punishment Bass tabs (ver.1)

Artists:  A B C D E F G H I J K L M N O P Q R S T U V W X Y Z # 

Angel's Punishment Bass tabs (ver.1)

Lacuna Coil
Rating:
0/5 (0 votes)

Hard to play? Try these video lessons and learn fast.
                Man this song is impossible to find eh?, i already put the guitar one up so i thought
id put the bass one up, enjoy

Intro
|--------------------------------------------------------------|
|--------------------------------------------------------------| X2
|-0------7------10------5------8------3------5------5----------|
|--------------------------------------------------------------|

Verse 1
|--------------------------------------------------------------|
|--------------------------------------------------------------| X4
|-0--0----0-0--7----3--3----3--1--1----1-----------------------|
|--------------------------------------------------------------|

|--------------------------------------------------------------|
|------------2------2---2--2-----------------------------------| X4
|-0--0---0--------------------3---3--3----1---1--1-------------|
|--------------------------------------------------------------|

Chorus
|--------------------------------------------------------------|
|--------------2-----------------------------------------------| X4
|-0-------------------------3------------1---------------------|
|--------------------------------------------------------------|

Verse 2
|--------------------------------------------------------------|
|------------2----2---2----------------------------------------| X4
|-0---0--0---------------3----3---3---1----1--1----------------|
|--------------------------------------------------------------|

2nd Part Of Verse 1

Chorus

Bridge
|--------------------------------------------------------------|
|-5--------------------0------2--------------------------------|
|--------2------3----------------------------------------------|
|--------------------------------------------------------------|

Intro (X2)

Chorus (X8)

Bridge

Chorus (X4)
            
Hard to play? Try these video lessons and learn fast. | Correct




comments powered by Disqus
↑ Back to top | Tablatures and chords are parodies/interpretations of the original songs. You may use it for private study, scholarship, research or language learning purposes only