>
 >
Siehst Du Im Licht

Siehst Du Im Licht Guitar Tabs

Lacrimosa - Siehst Du Im Licht chords, tabs, tablatures, lyrics

Guitar lessons | Add/correct | Request | Top 50 tabs Artists:  A B C D E F G H I J K L M N O P Q R S T U V W X Y Z 0-9

Siehst Du Im Licht Guitar Tabs – Lacrimosa

CD, Sheet music, Poster

Do you like Siehst Du Im Licht? Share with your friends now
Tabs
INTRO: 
-drums and bass
|----------------------------------------|
|----------------------------------------|
|----------------------------------------|
|----------------------------------------|
|--x-x-------------x-x------------x-x----|
|--x-x-------------x-x------------x-x----|
   PM.             ...            ...

Then ... 
|----------------------------------------------------------------------|
|----------------------------------------------------------------------|
|----------------------------------------------------------------------|
|----------------------------------------------------------------------|X2
|--7------77777777--5------55555555--2------22222222--3------33333333--|
|--5------55555555--3------33333333--0------00000000--1------11111111--|
          PM......         ........         ........         ........        




VERSE1: (hear the rhythms for a more accurate interpretation) 
|----------------------------------------------------------------|
|----------------------------------------------------------------|
|----------------------------------------------------------------|
|5---55-4/5-55-5.-4-5---55-5/4--4/5-4----------------------------|----|
|3---33-2/3-33-3.-2-3---33-3/2--2/3-2--22-2-22-3----2^3----------|    |
|--------------------------------------00-0-00-1-1--0^1---3-1-00-|    |
     PM     ..          ..             ..   ..   .        ......      |
           |FIG1
|------------------------------|               |     
|------------------------------|           |X2     
|------------------------------|--------------------------------------|
|------------------------------|
|-2----2---2----2----2---------|
|-0-00-0-0-0-00-0-00-0-5-3-1-0-|
    ..   .   ..   ..   .......
(on the second time of FIG2 there are some Artificial Harmonics)





BRIDGE:  
|-----------------------------------------------------------------------|
|-----------3------------------3----------------------------------------|FIG2
|--0--------2--------0---------2----------5-----------------------------|
|--0--------0--------0---------0----------5---------2--------2------7---|
|--2--------0--------2---------0----------3---------2--------2------7---|X1
|--3-----------------3------------------------------0--------0--3~--5---|





CHORUS:
Guitar1:
|----------------------------------------------------|
|----------------------------------------------------|
|----------------------------------------------------|
|5-5----5----7/5---5---5-----------------------------|------|
|3-3-33-3-33-5/3-3-3-3-3----5----5---5---5-----5---5-|         |
|------------------------33-3-33-3-3-3-0-3-333-3-3-3-|         |FIG3
     PM   ..     .   .   ..   ..   .   .   ...   .          |
                 |
|-----------------------------------------|                 |X2
|-----------------------------------------|         |
|-----------------------------------------|-----------------|
|-----------------------------------------|
|-7-7---7---7-7--7-7-7-3-3333333333333333-|
|-5-5-5-5-5-5-5--5-5-5-1-1111111111111111-|
      .   .              ................

|Guitar2: 
|-------20-------20----20-------20-------20----20-|
|-17-18----17-18----17----17-18----17-18----17----|
|-------------------------------------------------|
|-------------------------------------------------|-----|
|-------------------------------------------------|     |
|-------------------------------------------------|     |
     |
|-------19-------19----19-------19-------19----19-|     |
|-15-17----15-17----15----15-17----15-17----15----|     |
|-------------------------------------------------|-----|
|-------------------------------------------------|     |
|-------------------------------------------------|     |
|-------------------------------------------------|     |SOLO1
     |     
|-------17-------17----17-------17-------17----17-|     |X2
|-13-15----13-15----13----13-15----13-15----13----|     |
|-------------------------------------------------|-----|
|-------------------------------------------------|     |
|-------------------------------------------------|     |
|-------------------------------------------------|     |
     |
|-------19-------19----19-------19-------19----19-|     |
|-15-17----15-17----15----15-17----15-17----15----|     |
|-------------------------------------------------|-----|
|-------------------------------------------------|
|-------------------------------------------------|
|-------------------------------------------------|





VERSE2: 
|Guitar1: FIG1 X2
|Guitar2:
|----------------------------------------------------------------|
|-13~---13-13-15^13-13-17--13-15--13~---13-13-15^13-13-17--13-15-|
|----------------------------------------------------------------|
|----------------------------------------------------------------|
|----------------------------------------------------------------|
|----------------------------------------------------------------|

|----------------------------------------------------------------|
|-12~---12-12-15^12-12-17--12-15--12~---12-12-15^12-12-17--12-15-|
|----------------------------------------------------------------|
|----------------------------------------------------------------|
|----------------------------------------------------------------|
|----------------------------------------------------------------|

|-12~---12-12-13^12-12-15--12-13--12~---12-12-13^12-12-15--12-13-|
|----------------------------------------------------------------|
|----------------------------------------------------------------|
|----------------------------------------------------------------|
|----------------------------------------------------------------|
|----------------------------------------------------------------|

|-12~---12-12-13^12-12-15--12-13--12~---12-12-13^12-12-15--12-13-|
|----------------------------------------------------------------|
|----------------------------------------------------------------|
|----------------------------------------------------------------|
|----------------------------------------------------------------|
|----------------------------------------------------------------|




BRIDGE:
Guitar1: FIG2 X1
Guitar2:
|------------------------------------------------------------------|
|------------------------------------------------------------------|
|-/15---15-14-12----14-----12-14-15---15-14-12----14-----14-16-17--|
|----------------15----------------------------15------------------|
|------------------------------------------------------------------|
|------------------------------------------------------------------|

|---------------------------------------------------|
|-17---17-15-13-12-13--15---15-13-12-12--13-15--13--|
|---------------------------------------------------|
|---------------------------------------------------|
|---------------------------------------------------|
|---------------------------------------------------|




INTERLUDE:
-Only Keyboards
-Enter drums and then...
|-----------------------------------------------------------------|
|-----------------------------------------------------------------|
|-------------AH--------------AH--------------AH--------------AH--|
|-------------7~--------------7~--------------5~--------------5~--|
|-7-7-7-7-7-7-----7-7-7-7-7-7-----5-5-5-5-5-5-----5-5-5-5-5-5-----|
|-5-5-5-5-5-5-----5-5-5-5-5-5-----3-3-3-3-3-3-----3-3-3-3-3-3-----|
  PM.........     ...........     ...........     ...........

|-----------------------------------------------------------------|
|-----------------------------------------------------------------|
|-----------------------------------------------------------------|
|-----------------------------------------------------------------|
|-----2-----2---2-----2-----2---2-----3-----3---3-----3-----3---3-|
|-0-0-0-000-0-0-0-0-0-0-000-0-0-0-1-1-1-111-1-1-1-1-1-1-111-1-1-1-|
  PM.   ...   .   ...   ...   .   ...   ...   .   ...   ...   .




CHORUS: 
-FIG3 X6 and SOLO1 X6




OUTRO:
|---------------------------------------------------------|
|---------------------------------------------------------|
|---------------------------------------------------------|
|---------------------------------------------------------|
|--7-------------5-------------2-------------3------------|
|--5-------------3-------------0-------------1------------|
      





Comments


Popular Lacrimosa tabs & chords
Diener Einer Geistes Bass Tabs
Not Every Pain Hurts Chords
The Party Is Over Chords
The Party Is Over 1 Chords
Der Klech Des Lebens Tabs
Ich Verlasse Heunt Dein Hertz Tabs
Liebesspiel Tabs
Seele In Not Tabs
Stolzes Herz Tabs
VermäChtnis Der Sonne Tabs


Song lyrics



↑ Back to top | Tablatures and chords are parodies/interpretations of the original songs. You may use it for private study, scholarship, research or language learning purposes only
© 2014 AZChords.com Contact us | Privacy policy | DMCA | Add/correct tabs | Request tabs | Top 50 tabs