» » »

Lacrimas Profundere, One Hope's Evening Tabs (ver.1)

Artists:  A B C D E F G H I J K L M N O P Q R S T U V W X Y Z # 

One Hope's Evening Tabs (ver.1)

Lacrimas Profundere Tabs
Rating:
0/5 (0 votes)
One Hope's Evening lessons Tabs too difficult? Try these video lessons and learn fast
                ---------------------------------
       One Hopes Evening -
       Lacrimas Profundere
---------------------------------

Tuning: Standard [EADGBe]

Intro/Verse:
   Am   Asus2  C
e|---------------------------------------------------------------------------|
B|-13----12----13------------------------------------------------------------|
G|-14----14----14--- <-- 6x -------------------------------------------------|
D|-14----14----15------------------------------------------------------------|
A|---------------------------------------------------------------------------|
E|---------------------------------------------------------------------------|


Chorus:                    ::: Listen to the song for the rhythm :::
    F   A   G   D
e|---------------------------------------------------------------------------|
B|-10-----------7-/----------------------------------------------------------|
G|-10---7---5---7-/-------<-- 2x --------------------------------------------|
D|--8---7---5---5-/----------------------------------------------------------|
A|------5---3----------------------------------------------------------------|
E|---------------------------------------------------------------------------|


Verse:
   Am   Asus2  C
e|--------------------------------|
B|-13----12----13-----------------|
G|-14----14----14--- <-- 3x ------|
D|-14----14----15-----------------|
A|--------------------------------|  And then :
E|--------------------------------|

e|--------------------------------------------------------------------|
B|----13--13-----12--12-------------13--------------------------------|
G|------------------------------------14-----The last part 5 times ---|
D|--14--14--14-14--14--14---------15----15----------------------------|
A|--------------------------------------------------------------------|
E|--------------------------------------------------------------------|

Chorus:
    F   A   G   D
e|---------------------------------------------------------------------------|
B|-10-----------7-/----------------------------------------------------------|
G|-10---7---5---7-/-------<-- 2x --------------------------------------------|
D|--8---7---5---5-/----------------------------------------------------------|
A|------5---3----------------------------------------------------------------|
E|---------------------------------------------------------------------------|

After Keyboard -> normal Chorus but Clean! (Accoustic-like)

Then again with Disturbance

::: I Hope you enjoy this Great song :::

Cheers ;)

PS.: Its my First Tab...:)
     please make some comments,if there are mistakes...:)
            

comments powered by Disqus
↑ Back to top | Lacrimas Profundere Tabs for One Hope's Evening. Lyrics for acoustic guitar and electric guitar. Tablatures and chords are parodies/interpretations of the original songs. You may use it for private study, scholarship, research or language learning purposes only