» » »

Lacrimas Profundere, Melantroduction Tabs (ver.1)

Artists:  A B C D E F G H I J K L M N O P Q R S T U V W X Y Z # 

Melantroduction Tabs (ver.1)

Lacrimas Profundere Tabs
Rating:
5/5 (1 vote)
Melantroduction lessons Tabs too difficult? Try these video lessons and learn fast
                /---------------------------------------------------------------------------
/ The following is the author's own interpretation of the song, to be used -
/ for studying or private use only, removal of any part of this ten line   -
/ place inwhich the tab was downloaded. Publishing as well as printing of  -
/ owner of the song. Failure to apply to these laws result will in legal   -
/ action from the appropriate parties.                                     -
/---------------------------------------------------------------------------


Band:  Lacrimas Profundere
Version 1.0 - 2003

.  - palm mute           /  - slide up to
\  - slide down to       ~  - vibrato
h  - hammer on           b  - Bend
p  - pull off            Suffixes for bend
t  - tap                 f  - full bend    h - half bend
ph - pinched harmonic    q  - quarter bend t - tap bend
*  - see comment         ^  - Hold bend    r release bend
x  - Stuccatto           ~  - vibrato bend
,  - slight palm mute    () - ghost note, sustained note
"  - tremolo note        <> - Trill

Tuning E A D G B E

Intro
e|--------------------------------------------------------------------|
a|--------------------------------------------------------------------|
d|--------------------------------------------------------------------|
g|-7--7/9--9/17-16--16--14--14--16--17--16h17h16--14--12--14--16-17-19|
b|--------------------------------------------------------------------|
e|--------------------------------------------------------------------|

e|-------------------------------------------------------------------|
a|-------------------------------------------------------------------|
d|----------------------------------16-------------------------------|
g|-17/19/17--12--14*/16--14------------19--17--17/19/17--17--16--17--|
b|-------------------------------------------------------------------|
e|-------------------------------------------------------------------|
* Let ring for several seconds THEN slide (listen to song for exact timing)

e|-------------------------------------------------------------------|
a|-------------------------------------------------------------------|
d|-------------------------------------------------------------------|
g|--7-7--7/9-9/14~~---17/16/17~~--7-7/9~~~~--------------------------|
b|-------------------------------------------------------------------|
e|-------------------------------------------------------------------|


Powerchords (repeated throughout the whole song)
e|-------------------------------------------------------------------|
a|-------------------------------------------------------------------|
d|-------------------------------------------------------------------|
g|-2---------7----5-4--2---------------------------------------------|
b|-2---------7----5-4--2---------------------------------------------|
e|-0---------5----3-2--0---------------------------------------------|

Riff Played During Powerchord Progression
e|-------------------------------------------------------------------|
a|-------------------------------------------------------------------|
d|---5-5-5-5-4-4-4--7--5--4------------------------------------------|
g|-------------------------------------------------------------------|
b|-------------------------------------------------------------------|
e|-------------------------------------------------------------------|

Thats just about it.
The rest of the song is mostly in the synth and singing.
            
Submit corrections

comments powered by Disqus
↑ Back to top | Lacrimas Profundere Tabs for Melantroduction. Lyrics for acoustic guitar and electric guitar. Tablatures and chords are parodies/interpretations of the original songs. You may use it for private study, scholarship, research or language learning purposes only