» » »

Lacrimas Profundere, Ave End Tabs (ver.1)

Artists:  A B C D E F G H I J K L M N O P Q R S T U V W X Y Z # 

Ave End Tabs (ver.1)

Lacrimas Profundere Tabs
Rating:
5/5 (2 votes)
Ave End lessons Tabs too difficult? Try these video lessons and learn fast
                Label: Napalm Records

If you have any questions or whatever, just leave a comment.

Song was written and composed by Oliver Nikolas Schmid.

There are two guitars being played; both play the same riffs, except where noted.

. = palm mute

Dropped C Tuning - 4/4 Time
==========

INTRO w/PIANO
D|-----------------|-----------------|-----------------|-----------------|
A|-----------------|-----------------|-----------------|-----------------|
F|-----------------|-----------------|-----------------|-----------------|
C|-----------------|-----------------|-7---------------|-7-------3-------|
G|-----------------|-----------------|-7---------------|-7-------3-------|
C|-----------------|-----------------|-7---------------|-7-------3-------|


CHORUS RIFF
D|-----------------|-----------------|-----------------|-----------------|
A|-----------------|-----------------|-----------------|-----------------|
F|-----------------|-----------------|-----------------|-----------------|
C|-7-7-7-7-7-7-7-7-|-7-7-7-7-7-7-7-7-|-3-3-3-3-3-3-3-3-|-0-0-0-0-5-5-5-5-|
G|-7-7-7-7-7-7-7-7-|-7-7-7-7-7-7-7-7-|-3-3-3-3-3-3-3-3-|-0-0-0-0-5-5-5-5-|
C|-7-7-7-7-7-7-7-7-|-7-7-7-7-7-7-7-7-|-3-3-3-3-3-3-3-3-|-0-0-0-0-5-5-5-5-| x4


VERSE RIFF
D|------------------------|-------------------------|
A|------------------------|-------------------------|
F|------------------------|-------------------------|
C|-7--7-7-7-7--7--7-7-7-7-|-0--0-0-0-0--3-----------|
G|-7--7-7-7-7--7--7-7-7-7-|-0--0-0-0-0--3---3--2----|
C|-7--7-7-7-7--7--7-7-7-7-|-0--0-0-0-0--3---------5-| x4
      . . .       . . .        . . .

** Repeat CHORUS RIFF


VERSE RIFF-variation 1
D|------------------------|-------------------------|
A|------------------------|-------------------------|
F|------------------------|-------------------------|
C|-7--7-7-7-7--7--7-7-7-7-|-0--0-0-0-0--3-----------|
G|-7--7-7-7-7--7--7-7-7-7-|-0--0-0-0-0--3---3--2----|
C|-7--7-7-7-7--7--7-7-7-7-|-0--0-0-0-0--3---------5-|
      . . .       . . .        . . .

D|------------------------|-------------------------|
A|------------------------|-------------------------|
F|------------------------|-------------------------|
C|------------------------|-0--0-0-0-0--3-----------|
G|------------------------|-0--0-0-0-0--3---3--2----|
C|------------------------|-0--0-0-0-0--3---------5-|
                               . . .

D|------------------------|-------------------------|
A|------------------------|-------------------------|
F|------------------------|-------------------------|
C|-7--7-7-7-7--7--7-7-7-7-|-0--0-0-0-0--3-----------|
G|-7--7-7-7-7--7--7-7-7-7-|-0--0-0-0-0--3---3--2----|
C|-7--7-7-7-7--7--7-7-7-7-|-0--0-0-0-0--3---------5-| x2
      . . .       . . .        . . .

** Repeat CHORUS RIFF


BRIDGE -- PART A - repeat x2
   Guitar 1 (clean)
D|-------------------------------------|---------------------------------|
A|-------------------------------------|---------------------------------|
F|-------------------------------------|---------------------------------|
C|-------------------------------------|---------------------------------|
G|-7-7-7--5-5-5--7-7-7--5-5-5--5-7-5---|-5-5-5-5-5-5-5-5-5-5-5-5-5-5-5-5-|
C|-------------------------------------|---------------------------------|

D|-------------------------------------|-------------------------------------|
A|-------------------------------------|-------------------------------------|
F|-------------------------------------|-------------------------------------|
C|-------------------------------------|-------------------------------------|
G|-7-7-7--5-5-5--7-7-7--5-5-5--5-7-5-5-|-7-7-7--5-5-5--7-7-7--5-5-5--5-7-5-5-|
C|-------------------------------------|-------------------------------------|

BRIDGE -- PART B
   Guitar 1 (distorted)
D|-------------------------------------|---------------------------------|
A|-------------------------------------|---------------------------------|
F|-------------------------------------|---------------------------------|
C|-------------------------------------|---------------------------------|
G|-7-7-7--5-5-5--7-7-7--5-5-5--5-7-5---|-5-5-5-5-5-5-5-5-5-5-5-5-5-5-5-5-|
C|-------------------------------------|---------------------------------|
 | Guitar 2 (distorted)
D|-------------------------------------|-------------------------------------|
A|-------------------------------------|-------------------------------------|
F|-------------------------------------|-------------------------------------|
C|-7------7-7----7-7----7-7----7-7-7---|-0------0-0----0-0----0-0----0-0-0---|
G|-7------7-7----7-7----7-7----7-7-7---|-0------0-0----0-0----0-0----0-0-0---|
C|-7------7-7----7-7----7-7----7-7-7---|-0------0-0----0-0----0-0----0-0-0---|
          .      .      .      .                .      .      .      .

   Guitar 1
D|-------------------------------------|-------------------------------------|
A|-------------------------------------|-------------------------------------|
F|-------------------------------------|-------------------------------------|
C|-------------------------------------|-------------------------------------|
G|-7-7-7--5-5-5--7-7-7--5-5-5--5-7-5-5-|-7-7-7--5-5-5--7-7-7--5-5-5--5-7-5-5-|
C|-------------------------------------|-------------------------------------|
 | Guitar 2
D|-------------------------------------|-------------------------------------|
A|-------------------------------------|-------------------------------------|
F|-------------------------------------|-------------------------------------|
C|-3------3-3----3-3----3-3----3-3-3---|-2------2-2----2-2----2-2----2-2-2---|
G|-3------3-3----3-3----3-3----3-3-3---|-2------2-2----2-2----2-2----2-2-2---|
C|-3------3-3----3-3----3-3----3-3-3---|-2------2-2----2-2----2-2----2-2-2---|
          .      .      .      .                .      .      .      .

BRIDGE -- PART C
   Guitar 1
D|-------------------------------------|---------------------------------|
A|-------------------------------------|---------------------------------|
F|-------------------------------------|---------------------------------|
C|-------------------------------------|---------------------------------|
G|-7-7-7--5-5-5--7-7-7--5-5-5--5-7-5---|-5-5-5-5-5-5-5-5-5-5-5-5-5-5-5-5-|
C|-------------------------------------|---------------------------------|
 | Guitar 2
D|-------------------------------------|-------------------------------------|
A|-------------------------------------|-------------------------------------|
F|-------------------------------------|-------------------------------------|
C|-7------7-7----7-7----7-7----7-7-7---|-0------0-0----0-0----0-0----0-0-0---|
G|-7------7-7----7-7----7-7----7-7-7---|-0------0-0----0-0----0-0----0-0-0---|
C|-7------7-7----7-7----7-7----7-7-7---|-0------0-0----0-0----0-0----0-0-0---|
          .      .      .      .                .      .      .      .

   Guitar 1
D|-------------------------------------|-------------------------------------|
A|-------------------------------------|-------------------------------------|
F|-------------------------------------|-------------------------------------|
C|-------------------------------------|-2------2------2---------------------|
G|-7-7-7--5-5-5--7-7-7--5-5-5--5-7-5-5-|-2------2------2-------------3--2----|
C|-------------------------------------|-2------2------2-------------------5-|
 | Guitar 2
D|-------------------------------------|-------------------------------------|
A|-------------------------------------|-------------------------------------|
F|-------------------------------------|-------------------------------------|
C|-3------3-3----3-3----3-3----3-3-3---|-2------2------2---------------------|
G|-3------3-3----3-3----3-3----3-3-3---|-2------2------2-------------3--2----|
C|-3------3-3----3-3----3-3----3-3-3---|-2------2------2-------------------5-|
          .      .      .      .

** Repeat VERSE RIFF x4, then end song with:

D|-------------|
A|-------------|
F|-------------|
C|-7-----------|
G|-7-----------|
C|-7-----------|

THE END!
            
Submit corrections

comments powered by Disqus
↑ Back to top | Lacrimas Profundere Tabs for Ave End. Lyrics for acoustic guitar and electric guitar. Tablatures and chords are parodies/interpretations of the original songs. You may use it for private study, scholarship, research or language learning purposes only