» » »

Labyrinth, Moonlight Bass tabs (ver.1)

Artists:  A B C D E F G H I J K L M N O P Q R S T U V W X Y Z # 

Moonlight Bass tabs (ver.1)

Labyrinth Tabs
Rating:
0/5 (0 votes)
Moonlight lessons Tabs too difficult? Try these video lessons and learn fast
                
MOONLIGHT (Bassline)
As recorded by Labyrinth
(From the 1998 Album RETURN TO HEAVEN DENIED)

	

Words by Olaf Thorsen Music by Labyrinth
Arranged by Labyrinth

Gtr I (B E A D G) - 'Chris Breeze'

 Intro
  Q=160
 4/4
  Gtr I
  W          W          W          W
|----------|----------|----------|------|
|----------|----------|----------|------|
|----------|----------|----------|------|
|----------|----------|----------|------|
|----------|----------|----------|------|


  W          W          W
|----------|----------|------|
|----------|----------|------|
|----------|----------|------|
|----------|----------|------|
|----------|----------|------|


    Q.   Q.   Q    Q.   Q  E E E   Q.   Q.   Q    Q.   Q  E E E
||---------------|---------------|--------------|----------------||
||o--------------|---------------|--------------|---------------o||
||---------------|---------------|--------------|----------------||
||o--------------|---------------|-3----3----3--|-5----5--5-5---o||
||--0----0----0--|-0----0--0-0---|--------------|----------------||


    W          W          W          H    H
||-----------|----------|----------|------------||
||o----------|----------|----------|-----------o||
||--2--------|-0--------|----------|-5----0-----||
||o----------|----------|-3--------|-----------o||
||-----------|----------|----------|------------||


   Verse
    S S S S S S S S S S S S S S S S   S S S S S S S S S S S S S S S S
||----------------------------------|---------------------------------|
||o---------------------------------|---------------------------------|
||--2-2-2-2-2-2-2-2-2-2-2-2-2-2-2-2-|-0-0-0-0-0-0-0-0-0-0-0-0-0-0-0-0-|
||o---------------------------------|---------------------------------|
||----------------------------------|---------------------------------|


  S S S S S S S S S S S S S S S S   S S S S S S S S S S S S S S S S
|---------------------------------|----------------------------------||
|---------------------------------|---------------------------------o||
|---------------------------------|-5-5-5-5-5-5-5-5-0-0-0-0-0-0-0-0--||
|-3-3-3-3-3-3-3-3-3-3-3-3-3-3-3-3-|---------------------------------o||
|---------------------------------|----------------------------------||


   Pre-Chorus
    $
    S S E E E E E E E   S S E E E E E E E
||--------------------|-------------------|
||o-------------------|-------------------|
||--------------------|-------------------|
||o-2-2-2-2-2-2-2-2-2-|-2-2-2-2-2-2-2-2-2-|
||--------------------|-------------------|


  E E S S E E E S S E   S S E E E E E E E
|---------------------|-------------------|
|---------------------|-------------------|
|-2-2-2-2-2-2-2-2-2-2-|-7-7-7-7-7-7-7-7-7-|
|---------------------|-------------------|
|---------------------|-------------------|


  E E S S E E E S S E     E E H.
|----------------------||-----------||
|-5-5-5-5-5-4-4-4-4-4-o||-4---------||
|----------------------||-----------||
|---------------------o||-----------||
|----------------------||-----------||


 Chorus
  $$
  S S S S S S S S S S S S S S S S   S S S S S S S S S S S S S S S S
|---------------------------------|---------------------------------|
|---------------------------------|---------------------------------|
|-2-2-2-2-2-2-2-2-2-2-2-2-2-2-2-2-|-2-2-2-2-2-2-2-2-2-2-2-2-2-2-2-2-|
|---------------------------------|---------------------------------|
|---------------------------------|---------------------------------|


  S S S S S S S S S S S S S S S S   S S S S S S S S S S S S S S S S
|---------------------------------|---------------------------------|
|---------------------------------|---------------------------------|
|-0-0-0-0-0-0-0-0-0-0-0-0-0-0-0-0-|-0-0-0-0-0-0-0-0-0-0-0-0-0-0-0-0-|
|---------------------------------|---------------------------------|
|---------------------------------|---------------------------------|


  S S S S S S S S S S S S S S S S   S S S S S S S S S S S S S S S S
|---------------------------------|---------------------------------|
|---------------------------------|---------------------------------|
|-7-7-7-7-7-7-7-7-7-7-7-7-7-7-7-7-|-7-7-7-7-7-7-7-7-7-7-7-7-7-7-7-7-|
|---------------------------------|---------------------------------|
|---------------------------------|---------------------------------|


  S S S S S S S S S S S S S S S S   S S S S S S S S S S S S S S S S
|---------------------------------|---------------------------------|
|---------------------------------|---------------------------------|
|-5-5-5-5-5-5-5-5-5-5-5-5-5-5-5-5-|-0-0-0-0-0-0-0-0-0-0-0-0-0-0-0-0-|
|---------------------------------|---------------------------------|
|---------------------------------|---------------------------------|


  S S S S S S S S S S S S S S S S   S S S S S S S S S S S S S S S S
|---------------------------------|---------------------------------|
|---------------------------------|---------------------------------|
|-2-2-2-2-2-2-2-2-2-2-2-2-2-2-2-2-|-4-5-4-2-4-5-4-2-4-5-4-2-4-5-4-2-|
|---------------------------------|---------------------------------|
|---------------------------------|---------------------------------|


  S S S S S S S S S S S S S S S S   S S S S S S S S S S S S S S S S
|---------------------------------|---------------------------------|
|---------------------------------|---------------------------------|
|-0-0-0-0-0-0-0-0-0-0-0-0-0-0-0-0-|-0-0-0-0-0-0-0-0-0-0-0-0-0-0-0-0-|
|---------------------------------|---------------------------------|
|---------------------------------|---------------------------------|


  S S S S S S S S S S S S S S S S   S  S S S S  S S S S  S S S S  S S S
|---------------------------------|-------------------------------------|
|---------------------------------|-------------------------------------|
|-7-7-7-7-7-7-7-7-7-7-7-7-7-7-7-7-|-9-10-9-7-9-10-9-7-9-10-9-7-9-10-9-7-|
|---------------------------------|-------------------------------------|
|---------------------------------|-------------------------------------|


                                                      To Dbl. Coda
  S S S S S S S S S S S S S S S S   S S S S S S S S S S S S S S S S
|---------------------------------|---------------------------------||
|---------------------------------|---------------------------------||
|-5-5-5-5-5-5-5-5-5-5-5-5-5-5-5-5-|-0-0-0-0-0-0-0-0-0-0-0-0-0-0-0-0-||
|---------------------------------|---------------------------------||
|---------------------------------|---------------------------------||


    E S S E E E S S E E   E S S E E E S S E E
||----------------------|---------------------|
||o---------------------|---------------------|
||--2-2-2-2-2-2-2-2-2-2-|-2-2-2-2-2-2-2-2-2-2-|
||o---------------------|---------------------|
||----------------------|---------------------|


  E S S E E E S S E E   E S S E E E S S E E
|---------------------|------------------------||
|---------------------|-----------------------o||
|-2-2-2-2-2-2-2-2-2-2-|-2-2-2-2-2-2-2-2-2-2----||
|---------------------|-----------------------o||
|---------------------|------------------------||


   Bridge
                                    To Coda
    W          +W           W          +W
||-----------|------------|----------|----------||
||o----------|------------|----------|---------o||
||--2--------|-(2)--------|-2--------|-(2)------||
||o----------|------------|----------|---------o||
||-----------|------------|----------|----------||


    Q  E E Q  E E   Q  E E E E E E   Q  E E Q  E E   Q  E E E E E E
||----------------|----------------|---------------|-----------------||
||o---------------|----------------|---------------|----------------o||
||--2--2-2-2--2-2-|-2--2-2-2-2-2-2-|-2--2-2-2--2-2-|-2--2-2-2-2-2-2--||
||o---------------|----------------|---------------|----------------o||
||----------------|----------------|---------------|-----------------||


  W          +H     +H       W          +W
|----------|---------------|----------|--------|
|----------|---------------|----------|--------|
|-2--------|-(2)----(2)S===|=9--------|-(9)----|
|----------|---------------|----------|--------|
|----------|---------------|----------|--------|


   W           H.       E E   W          W
|-----------|---------------|----------|------|
|-----------|---------------|----------|------|
|-10--------|-12------------|----------|------|
|-----------|----------10-9-|-7--------|------|
|-----------|---------------|----------|-0----|


  Q  E E Q  E E   Q  E E E E E E   Q  E E Q  E E   Q  E E E E E E
|---------------|----------------|---------------|-----------------|
|---------------|----------------|---------------|-----------------|
|-2--2-2-2--2-2-|-2--2-2-2-2-2-2-|-2--2-2-2--2-2-|-2--2-2-2-2-2-2--|
|---------------|----------------|---------------|-----------------|
|---------------|----------------|---------------|-----------------|


  Q  E E Q  E E   Q  E E E E E E   E E E E E E E E   E E E E H
|---------------|----------------|-----------------|--------------||
|---------------|----------------|-----------------|--------------||
|-2--2-2-2--2-2-|-2--2-2-2-2-2-2-|-7-7-7-7-7-7-7-7-|-7-7-7-7-7----||
|---------------|----------------|-0-0-0-0-0-0-0-0-|-0-0-0-0-0----||
|---------------|----------------|-----------------|--------------||


 Verse
  E E S S E E E S S E   E E S S E E E S S E
|---------------------|---------------------|
|---------------------|---------------------|
|-2-2-2-2-2-2-2-2-2-2-|-0-0-0-0-0-0-0-0-0-0-|
|---------------------|---------------------|
|---------------------|---------------------|


  E E S S E E E S S E   E E S S E E E S S E
|---------------------|---------------------|
|---------------------|---------------------|
|---------------------|-5-5-5-5-5-0-0-0-0-0-|
|-3-3-3-3-3-3-3-3-3-3-|---------------------|
|---------------------|---------------------|


  S S S S S S S S S S S S S S S S   S S S S S S S S S S S S S S S S
|---------------------------------|---------------------------------|
|---------------------------------|---------------------------------|
|-2-2-2-2-2-2-2-2-2-2-2-2-2-2-2-2-|-0-0-0-0-0-0-0-0-0-0-0-0-0-0-0-0-|
|---------------------------------|---------------------------------|
|---------------------------------|---------------------------------|


                                                      D.S. al Coda
  S S S S S S S S S S S S S S S S   S S S S S S S S S S S S S S S S
|---------------------------------|---------------------------------||
|---------------------------------|---------------------------------||
|---------------------------------|-5-5-5-5-5-5-5-5-0-0-0-0-0-0-0-0-||
|-3-3-3-3-3-3-3-3-3-3-3-3-3-3-3-3-|---------------------------------||
|---------------------------------|---------------------------------||


   Solo - Anders Rain
    &
    Q  E E Q  E E   Q  E E E E E E   Q  E E Q  E E   Q  E E E E E E  3x
||----------------|----------------|---------------|-----------------||
||o---------------|----------------|---------------|----------------o||
||--2--2-2-2--2-2-|-2--2-2-2-2-2-2-|-2--2-2-2--2-2-|-2--2-2-2-2-2-2--||
||o---------------|----------------|---------------|----------------o||
||----------------|----------------|---------------|-----------------||


  Q  E E Q  E E   Q  E E E E E E   E E E E E E E E   W
|---------------|----------------|-----------------|------||
|---------------|----------------|-----------------|------||
|-2--2-2-2--2-2-|-2--2-2-2-2-2-2-|-7-7-7-7-7-7-7-7-|-7----||
|---------------|----------------|-0-0-0-0-0-0-0-0-|-0----||
|---------------|----------------|-----------------|------||


   Solo - Olaf Thorsen
    S S S S S S S S S S S S S S S S   S S S S S S S S S S S S S S S S
||----------------------------------|---------------------------------|
||o---------------------------------|---------------------------------|
||--2-2-2-2-2-2-2-2-2-2-2-2-2-2-2-2-|-0-0-0-0-0-0-0-0-0-0-0-0-0-0-0-0-|
||o---------------------------------|---------------------------------|
||----------------------------------|---------------------------------|


  S S S S S S S S S S S S S S S S   S S S S S S S S S S S S S S S S  4x
|---------------------------------|----------------------------------||
|---------------------------------|---------------------------------o||
|---------------------------------|-5-5-5-5-5-5-5-5-0-0-0-0-0-0-0-0--||
|-3-3-3-3-3-3-3-3-3-3-3-3-3-3-3-3-|---------------------------------o||
|---------------------------------|----------------------------------||


   Pre-Chorus
    S S E E E E E E E   S S E E E E E E E
||--------------------|-------------------|
||o-------------------|-------------------|
||--------------------|-------------------|
||o-2-2-2-2-2-2-2-2-2-|-2-2-2-2-2-2-2-2-2-|
||--------------------|-------------------|


  E E S S E E E S S E   S S E E E E E E E
|---------------------|-------------------|
|---------------------|-------------------|
|-2-2-2-2-2-2-2-2-2-2-|-7-7-7-7-7-7-7-7-7-|
|---------------------|-------------------|
|---------------------|-------------------|


  E E S S E E E S S E     W          +W
|----------------------||----------|--------|
|-5-5-5-5-5-4-4-4-4-4-o||-4--------|-(4)----|
|----------------------||----------|--------|
|---------------------o||-2--------|-(2)----|
|----------------------||----------|--------|


             D.S.S. al Dbl. Coda
  +W           +W           +W
|------------|------------|---------||
|-(4)--------|-(4)--------|-(4)-----||
|------------|------------|---------||
|-(2)--------|-(2)--------|-(2)-----||
|------------|------------|---------||


   Outro
    &&
    E S S E S S E S S E S S   S S S S S S S S S S S S S S S S
||--------------------------|---------------------------------|
||o-------------------------|---------------------------------|
||--2-2-2-2-2-2-2-2-2-2-2-2-|-2-2-2-2-2-2-2-2-2-2-2-2-2-2-2-2-|
||o-------------------------|---------------------------------|
||--------------------------|---------------------------------|


  E S S E S S E S S E S S   S S S S S S S S S S S S S S S S
|-------------------------|----------------------------------|
|-------------------------|----------------------------------|
|-0-0-0-0-0-0-0-0-0-0-0-0-|-0-0-0-0-0-0-0-0-0-0-0-0-0-0-0-0--|
|-------------------------|----------------------------------|
|-------------------------|----------------------------------|


  1.
  S S S S S S S S S S S S S S S S   S S S S S S S S S S S S S S S S
|---------------------------------|---------------------------------|
|---------------------------------|---------------------------------|
|-7-7-7-7-7-7-7-7-7-7-7-7-7-7-7-7-|-7-7-7-7-7-7-7-7-7-7-7-7-7-7-7-7-|
|---------------------------------|---------------------------------|
|---------------------------------|---------------------------------|


  S S S S S S S S S S S S S S S S   S S S S S S S S S S S S S S S S
|---------------------------------|----------------------------------||
|---------------------------------|---------------------------------o||
|-5-5-5-5-5-5-5-5-5-5-5-5-5-5-5-5-|-0-0-0-0-0-0-0-0-0-0-0-0-0-0-0-0--||
|---------------------------------|---------------------------------o||
|---------------------------------|----------------------------------||


  2.
  W          +W           W          W
|----------|------------|----------|------|
|----------|------------|----------|------|
|-7--------|-(7)--------|-5--------|-0----|
|----------|------------|----------|------|
|----------|------------|----------|------|


  W          +W           +W
|----------|------------|--------|
|----------|------------|--------|
|----------|------------|--------|
|-3--------|-(3)--------|-(3)----|
|----------|------------|--------|


  S S S S S S S S S S S S S S S S   E E H.        W
|---------------------------------|-------------|------*|
|---------------------------------|-------------|------*|
|-5-5-5-5-4-4-4-4-2-2-2-2-0-0-0-0-|-2-----------|------*|
|---------------------------------|-2-----------|------*|
|---------------------------------|-0-----------|------*|



Duration Legend
---------------
W - whole; H - half; Q - quarter; E - 8th; S - 16th; T - 32nd; X - 64th; a - acciaccatura
+ - note tied to previous; . - note dotted; .. - note double dotted
Uncapitalized letters represent notes that are staccato (1/2 duration)
Irregular groupings are notated above the duration line
Duration letters will always appear directly above the note/fret number it represents the
duration for.  Duration letters with no fret number below them represent rests.  Multi-
bar rests are notated in the form Wxn, where n is the number of bars to rest for.  Low
melody durations appear below the staff

Tablature Legend
----------------
 h   - hammer-on
 p   - pull-off
 b   - bend
 pb  - pre-bend
 r   - bend release (if no number after the r, then release immediately)
 /\  - slide into or out of (from/to "nowhere")
 s   - legato slide
 S   - shift slide
 - natural harmonic
[n]  - artificial harmonic
n(n) - tapped harmonic
 ~   - vibrato
 tr  - trill
 T   - tap
 TP  - trem. picking
 PM  - palm muting
\n/  - tremolo bar dip; n = amount to dip
 \n  - tremolo bar down
 n/  - tremolo bar up
/n\  - tremolo bar inverted dip
 =   - hold bend; also acts as connecting device for hammers/pulls
 <> - volume swell (louder/softer)
 x   - on rhythm slash represents muted slash
 o   - on rhythm slash represents single note slash

Misc Legend
-----------
 |  - bar
||  - double bar
||o - repeat start
o|| - repeat end
*|  - double bar (ending)
 :  - bar (freetime)
 $  - Segno
 &  - Coda
Tempo markers -  = BPM(8/16=s8/s16), where s8 = swing 8ths, s16 = swing 16ths
            
Submit corrections

comments powered by Disqus
↑ Back to top | Labyrinth Bass for Moonlight. Lyrics for acoustic guitar and electric guitar. Tablatures and chords are parodies/interpretations of the original songs. You may use it for private study, scholarship, research or language learning purposes only