>
 >
Kathryn

Kathryn Guitar Tabs

Labyrinth - Kathryn chords, tabs, tablatures, lyrics

Guitar lessons | Add/correct | Request | Top 50 tabs Artists:  A B C D E F G H I J K L M N O P Q R S T U V W X Y Z 0-9

Kathryn Guitar Tabs – Labyrinth

CD, Sheet music, Poster

Do you like Kathryn? Share with your friends now
Tabs
.  - palm mute
\  - slide down to
h  - hammer on
*  - repeat signs
_3_ - triplet
+  - shows the rhythm

fig 1
|-4------|-4------|-4------|-4------|
|-5------|-4------|-5------|-4------|
|-6------|-6------|-6------|-6------|
|-6------|-6------|-6------|-6------|
|--------|--------|--------|--------|
|--------|--------|--------|--------|


|-------------------------------|---------------------------------|
|-------------------------------|---------------------------------|
|*-4--6-6--4--6-6--4--6-6--6----|-4--6-6--4--6-6--4--6-6--6------*|
|*------------------------------|--------------------------------*|
|-------------------------------|---------------------------------|
|-------------------------------|---------------------------------|
   .  . .  .  . .  .  . .  .      .  . .  .  . .  .  . .


fig 2
|--------------------------------------------|
|-----------------------9------9--7----------|
|*-6------8------9--------------------9--8---|
|*-------------------------------------------|
|-----4-4----4-4----4-4----4-4---------------|
|--------------------------------------------|
      . .    . .    . .    . .
                                           4 times
|----------------------------------------------|
|----------------------------------------------|
|-----------------8------11------11--9--8-----*|
|--9------11-------------------------------9--*|
|----------------------------------------------|
|-----7-7-----7-7----7-7-----7-7---------------|
      . .     . .    . .     . .

Fig 2 has two different endings marked as e1 and e2
e1
|----------------------|----------------------|------------||
|----------------------|----------------------|------------||
|----------------------|----------------------|-6---4--6---||
|----------6---4---6---|-------4--7---6---7---|-6---4--6---||
|-4--6--7--------------|-4--7-----------------|-4---2--4---||
|----------------------|----------------------|------------||
  .  .  .                .  .  .

e2
|------|------||
|------|------||
|-6----|------||
|------|------||
|------|------||
|------|------||
let ring - -


fig 3
|----------------------|---------------|---------------------|
|----------------------|---------------|---------------------|
|*---------------------|---------------|---------------------|
|*---------------------|---------------|---------------------|
|--4h6--6--6--6-6-6-6--|-4h6--7--6--4--|-4h6--6--6--6-6-6-6--|
|----------------------|---------------|---------------------|
        .  .  . . . .                         .  .  . . . .

|--------------------------|----------------------|---------------|
|--------------------------|----------------------|---------------|
|-------------------------*|*---------------------|---------------|
|-------4-----------4h6h7-*|*-4h6--6--6--6-6-6-6--|-4h6--7--6--4--|
|-4-6-7---7-6-4-6-7--------|----------------------|---------------|
|--------------------------|----------------------|---------------|
  . . . . . . . . .                .  .  . . . .

|---------------------|--------------------------|
|---------------------|--------------------------|
|---------------------|-------4-----------4h6h7-*|
|-4h6--6--6--6-6-6-6--|-4-6-7---7-6-4-6-7-------*|
|---------------------|--------------------------|
|---------------------|--------------------------|
       .  .  . . . .    . . . . . . . . .

fig 4
   + + + +   + + + +   +  +  +   +     +   +   +   +
|----------|---------|-------_3_-_3_-|---------_3_-_3_---|
|----------|---------|---------------|-------------------|
|*-2-------|-4-------|-6-------------|-6----------------*|
|*-2-------|-4---6---|-6-------------|-6----------------*|
|--0-------|-2---6---|-4-----444-444-|-4-------444-444---|
|----------|-----4---|---------------|-------------------|
                             ... ...           ... ...
  + + + +   + + + +   + + + +   + + + +   + + + +   + + + +
|---------|---------|---------|---------|---------|---------|
|---------|---------|---------|---------|---------|---------|
|-2-------|-4-------|---------|---------|-2-------|-4-------|
|-2-------|-4-------|-4-------|-6-------|-2-------|-4-------|
|-0-------|-2-------|-4-------|-6-------|-0-------|-2-------|
|---------|---------|-2-------|-4-------|---------|---------|


fig 5                                              4 times
|--------------------------|--------------------------|
|-----------9--9--7--------|----------7--7------------|
|*-6--8--9-----------9--8--|----6--8--------9--8-----*|
|*-------------------------|-9--------------------9--*|
|--------------------------|--------------------------|
|--------------------------|--------------------------|


|----------------------|----------------------|-------------------|
|----------------------|----------------------|-------------------|
|----------------------|----------------------|-6-------4---4--6\-|
|----------6---4---6---|-------4--7---6---7---|-6-------6---4--6\-|
|-4--6--7--------------|-4--7-----------------|-4-------6---2--4\-|
|----------------------|----------------------|-------------------|
  .  .  .                .  .  .

structure
fig 1, fig 2 w e1, fig 3, fig 4, fig 2 w e1, fig 3, fig 2 w e1, fig 3,
fig 4, fig 2 w e2, fig 1, fig 4 (under solo), fig 2, fig 5





Comments


Popular Labyrinth tabs & chords
Moonlight Bass Tabs
A Midnight Autumns Dream Chords
Beneath Your Beautiful Tabs
Halfway Out Tabs
Halfway Out Intro Tabs
New Horizons Tabs
Save Me Tabs
Thunder Tabs
Time After Time Tabs
A Midnight Autumns Dream Ukulele


Song lyrics



↑ Back to top | Tablatures and chords are parodies/interpretations of the original songs. You may use it for private study, scholarship, research or language learning purposes only
© 2014 AZChords.com Contact us | Privacy policy | DMCA | Add/correct tabs | Request tabs | Top 50 tabs