>
 >
 >
'Till The Wheels Fall Off

'Till The Wheels Fall Off Guitar Tabs

L7 - 'Till The Wheels Fall Off chords, tabs, tablatures, lyrics

Guitar lessons | Add/correct | Request | Top 50 tabs Artists:  A B C D E F G H I J K L M N O P Q R S T U V W X Y Z 0-9

'Till The Wheels Fall Off Guitar Tabs – L7

CD, Sheet music, Poster

Do you like 'Till The Wheels Fall Off? Share with your friends now
Tabs
-----------------------------------------------------------------------------
-----------------------------------------------------------------------------

Tuning: standard

Intro:
e|----------------------------------------|
B|----------------------------------------|
G|----------------------------------------|
D|--7-5-------------------------7---------|
A|------7-5---------------------7---------|
E|----------8--5-5-8--5-5--5----5---------|

e|----------------------------------------|
B|----------------------------------------|
G|----------------------------------------|
D|--7-5-------------------------7---------|
A|------7-5---------------------7---------|
E|----------8--5-5-8--5-5--5-3--5---------|
At the first one, there is no guitar 2, at the second one, it's just that A power chord


Main 1:
e|-----------------------------|-------------------------------|
B|-----------------------------|-------------------------------|
G|-----------------------------|-------------------------------|
D|--7-5------------------------|-7--7-7-7-7-7-7-7-7-7-7-7--5---|
A|------7-5--------------------|-7--7-7-7-7-7-7-7-7-7-7-7--5---|
E|----------8--5-5-8--5-5--5-3-|-5--5-5-5-5-5-5-5-5-5-5-5--3---|
   ^ During this part, guitar 2 plays this ^
Main 2:
e|--------------------------------|
B|--------------------------------|
G|--------------------------------|
D|--9--9-9-9-9-9-9-9-9-9-9-9--7---|
A|--9--9-9-9-9-9-9-9-9-9-9-9--7---|
E|--7--7-7-7-7-7-7-7-7-7-7-7--5---|

Play Main 1 twice, then play Main 2 twice, keep this repeating, then before the break, 
alter Main 2 like this:
Main 2':
e|-------------------------------|
B|-------------------------------|
G|-------------------------------|
D|--9--9-9-9-9-9-9-9-9-8--7--5---|
A|--9--9-9-9-9-9-9-9-9-8--7--5---|
E|--7--7-7-7-7-7-7-7-7-6--5--3---|

Break:
e|------------------------|
B|------------------------|
G|------------------------|
D|--7----------5--7-------|
A|--7----------5--7-------|
E|--5----------3--5-------|

During the interlude, this is the rhythm:
e|-------------------------|
B|-------------------------|
G|-------------------------|
D|-------------------------|
A|-------------------------|
E|--5--5-5-5-5-5-5-5-5-3---|
    x  x x x x x x x x x
After this, keep repeating Main 1 & 2, then will come an other break, and before that 
break, also play Main 2' instead of Main 2.
Break:
e|-----------------|-----------------|-----------------|------------------|
B|-----------------|-----------------|-----------------|------------------|
G|-----------------|-----------------|-----------------|------------------|
D|--7----------5---|--7~~--------5---|--7-\--------5---|--7-7-7-7-7-7-7---|
A|--7----------5---|--7~~--------5---|--7-\--------5---|--7-7-7-7-7-7-7---|
E|--5----------3---|--5~~--------3---|--5-\--------3---|--5-5-5-5-5-5-5---|

After this, play Main 1 twice and Main 2' twice
then the ending, this is with slower tempo:
e|------------------------------|
B|------------------------------|
G|------------------------------|
D|--7-5------------------7--7---|
A|------7-5--------------7--7---|
E|----------8--5-5-8-----5--5---|


As you can see, I don't have lead parts, and also, I may not be 100% accurate, but I 
think it's pretty ok.
Have fun! :)

************************************

| /   slide up
| \   slide down
| h   hammer-on
| p   pull-off
| ~   vibrato
| +   harmonic
| x   Mute note
| b   Bend
| pb  Pre-bend
| br  Bend release
| pbr Pre-bend release
| brb Bend release bend

************************************





Comments


Popular L7 tabs & chords
Broomstick Bass Tabs
Me, Myself, And I Bass Tabs
Non Existent Patricia 1 Bass Tabs
She Has Eye's Bass Tabs
Shitlist Bass Tabs
Shitlist Chords
Andres 1 Tabs
Baggs Tabs
The Beauty Process 1 Tabs
Baggage Ukulele


Song lyrics



↑ Back to top | Tablatures and chords are parodies/interpretations of the original songs. You may use it for private study, scholarship, research or language learning purposes only
© 2014 AZChords.com Contact us | Privacy policy | DMCA | Add/correct tabs | Request tabs | Top 50 tabs