» » »

L7, Pretend That We're Dead Tabs (ver.7)

Artists:  A B C D E F G H I J K L M N O P Q R S T U V W X Y Z # 

Pretend That We're Dead Tabs (ver.7)

L7 Tabs
Rating:
0/5 (0 votes)
Pretend That We're Dead lessons Tabs too difficult? Try these video lessons and learn fast
                "(5)
Pretend We're Dead by L7


Verse Chorus:
E------------------------|
B------------------------|
G--4-----2---------------|
D--4--2--2--4------------|
A--2--2--0--4------------|
E-----0-----2------------|

Lead Part:
E----------------------------------------|
B------4------------------2--------------|
G--4-4---4------1-----2-2---2------3-----|
D-----------2-2---2------------4-4---4---|
A----------------------------------------|
E----------------------------------------|


Bass Part
G----------------------------|
D----------------------------|
A-2--------------------------|
E---0--5--2------------------|


Standard Tuning
"            

comments powered by Disqus
↑ Back to top | L7 Tabs for Pretend That We're Dead. Lyrics for acoustic guitar and electric guitar. Tablatures and chords are parodies/interpretations of the original songs. You may use it for private study, scholarship, research or language learning purposes only