» » »

L7, Pretend That We're Dead Tabs (ver.1)

Artists:  A B C D E F G H I J K L M N O P Q R S T U V W X Y Z # 

Pretend That We're Dead Tabs (ver.1)

L7 Tabs
Rating:
0/5 (0 votes)
Pretend That We're Dead lessons Tabs too difficult? Try these video lessons and learn fast
                -------------------------------------------------------------------------------
                            Pretend We’re Dead – L7
-------------------------------------------------------------------------------


Tunning: EADGBe


Main riff:
e---------------------------------------------------------------------|
B---------------------------------------------------------------------|
G---4-4-x-----------2-2-x------------2--------------------------------|
D---4-4-x---2-2-x---2-2-x---4----2-4-2--------------------------------|
A---2-2-x---2-2-x---0-0-x---4----2-4-0--------------------------------|
E-----------0-0-x-----------2----0-2----------------------------------|

Intro/chorus solo:
e---------------------------------------------------------------------|
B---------------------------------------------------------------------|
G--------8-------------1----------6------------2----------------------|
D---9-9----9------2-2----2------7---7--4---2-4------------------------|
A---------------------------------------------------------------------|
E---------------------------------------------------------------------|

Guitar solo:  02:54
e---------------------------------------------------------------------|
B--------------12-10--------------------------------------------------|
G-------11-9-----------11-9---11---------------9---9-11---------------|
D---9----------------------------9---9-12---12------------------------|
A---------------------------------------------------------------------|
E---------------------------------------------------------------------|

e---------------------------------------------------------------------|
B-----------------12-10-----------------------------------------------|
G---11-----11-9-----------11-9---11---------------9---9-10------------|
D------9----------------------------9---9-12---12---------------------|
A---------------------------------------------------------------------|
E---------------------------------------------------------------------|

e---------------------------------------------------------------------|
B---------------------------------------------------------------------|
G----------------16-14------------------------------------------------|
D---9----16-14-----------16-14---16-----------------14---14-16--------|
A-----------------------------------14---14-17---17-------------------|
E---------------------------------------------------------------------|

e---------------------------------------------------------------------|
B---------------------------------------------------------------------|
G-------------------16-14---------------------------------------------|
D---16------16-14-----------16-14---16-----------------14---14-16-----|
A------14------------------------------14---14-17---17----------------|
E---------------------------------------------------------------------|

e-----------------19-17-----------------------------------------------|
B---------19-17-----------19-17----19-------------------17----17-19---|
G-------------------------------------16----16-19----19---------------|
D---------------------------------------------------------------------|
A---14----------------------------------------------------------------|
E---------------------------------------------------------------------|

e-------------------19-17---------------------------------------------|
B---19------19-17-----------19-17---19------------------17----17-19---|
G------16------------------------------16---16-19----19---------------|
D---------------------------------------------------------------------|
A---------------------------------------------------------------------|
E---------------------------------------------------------------------|

e---------------------------------------------------------------------|
B---19-19-19-19-19-19-19-19--19-19-19-19-19-19-19-19-19-19------------|
G---------------------------------------------------------------------|
D---------------------------------------------------------------------|
A---------------------------------------------------------------------|
E---------------------------------------------------------------------|

SONG ORDER:

INTRO:
Main riff 4x
Main riff 4x + intro/chorus solo 4x

VERSE:
Main riff 4x

CHORUS:
Main riff 4x + intro/chorus solo 4x

Main riff 4x + intro/chorus solo 4x

VERSE 2:
Main riff 4x

CHORUS:
Main riff 4x + intro/chorus solo 4x

BREAK:
Intro solo 4x

CHORUS:
Main riff 8x

SOLO:
            
Submit corrections

comments powered by Disqus
↑ Back to top | L7 Tabs for Pretend That We're Dead. Lyrics for acoustic guitar and electric guitar. Tablatures and chords are parodies/interpretations of the original songs. You may use it for private study, scholarship, research or language learning purposes only