» » »

Pretend That We're Dead Bass tabs (ver.2)

Artists:  A B C D E F G H I J K L M N O P Q R S T U V W X Y Z # 

Pretend That We're Dead Bass tabs (ver.2)

L7
Rating:
0/5 (0 votes)

Hard to play? Try these video lessons and learn fast.
                verse
G|------------------------------|
D|------------------------------|  
A|-------------------4----------|   
E|-7-7-x-x-0-0-x-x-5---5-2--0-2-|   

chorus
G|------------------------------|
D|------------------------------|
A|-------------------4----------|
E|-7-7-7-7-0-0-0-0-5---5-2--0-2-|

bridge
G|-------------------------------------------------------|
D|-------------------------------------------------------|
A|--------------------------------6-------------4--------|
E|-2____--2/7----2/7----2/7---7-7---7-0-0-4-0-5---5-2-0-2| let the last note ring.
            
Hard to play? Try these video lessons and learn fast. | Correct




comments powered by Disqus
↑ Back to top | Tablatures and chords are parodies/interpretations of the original songs. You may use it for private study, scholarship, research or language learning purposes only