» » »

Ms 4 Tabs (ver.1)

Artists:  A B C D E F G H I J K L M N O P Q R S T U V W X Y Z # 

Ms 4 Tabs (ver.1)

L7
Rating:
0/5 (0 votes)

Hard to play? Try these video lessons and learn fast.
                "(5)
Ms.45 by L7 
Standard Tuning

Intro: 

e|----------------|
B|----------------|
G|----------------|
D|-2--2--2--2-2-2-|
A|-2--2--2--2-2-2-|
E|-0--0--0--0-0-0-| 

Verse: 

e|--------------------------------------------------------------------------|
B|--------------------------------------------------------------------------|
G|--------------------------------------------------------------------------|
D|-10-10-10-10-10-10-10-7--7--7--7--7--7--7--2--2--2--Pause--2--2--2--Pause-|
A|-10-10-10-10-10-10-10-7--7--7--7--7--7--7--2--2--2--Pause--2--2--2--Pause-|
E|-8--8--8--8--8--8--8--5--5--5--5--5--5--5--0--0--0--Pause--0--0--0--Pause-| 
She's got a gun!
e|--------------------------------------------------------------------------|
B|--------------------------------------------------------------------------|
G|--------------------------------------------------------------------------|
D|-10-10-10-10-10-10-10-7--7--7--7--7--7--7--2--2--2--2-2-2--2--2--2--2-2-2-|
A|-10-10-10-10-10-10-10-7--7--7--7--7--7--7--2--2--2--2-2-2--2--2--2--2-2-2-|
E|-8--8--8--8--8--8--8--5--5--5--5--5--5--5--0--0--0--0-0-0--0--0--0--0-0-0-|
Just make her day

Bridge: 

e|---------------------------------------------------------------------------------------|
B|---------------------------------------------------------------------------------------|
G|---------------------------------------------------------------------------------------|
D|-9--9--9--9--9--9--9--9--9--9--9--9--9--9--9--6--6--6--6--6--9--9--9--9--9--9--9--9--9-|
A|-9--9--9--9--9--9--9--9--9--9--9--9--9--9--9--6--6--6--6--6--9--9--9--9--9--9--9--9--9-|
E|-7--7--7--7--7--7--7--7--7--7--7--7--7--7--7--4--4--4--4--4--7--7--7--7--7--7--7--7--7-|
She walks the streets at night..

Chorus: 

e|----------------------------------------------------------------------|
B|----------------------------------------------------------------------|
G|----------------------------------------------------------------------|
D|-2--2--2--2--2--8--8--8--9--9--9--9--6--6--6--6--6--7--7--7--9--10-9--|
A|-2--2--2--2--2--8--8--8--9--9--9--9--6--6--6--6--6--7--7--7--9--10-9--|
E|-0--0--0--0--0--6--6--6--7--7--7--7--4--4--4--4--4--5--5--5--7--8--7--|
Hey!  45..

End:

e|-----------------------------------------0------------|
B|--------------------------------------------0---------|
G|-----------------------------------------------1~p0/1~|
D|-Pause--9--10-9--Pause--9--10-9--10-2~~~--------------|
A|-Pause--9--10-9--Pause--9--10-9--10-2~~~--------------|
E|-Pause--7--8--7--Pause--7--8--7--8--0~~~--------------|

Song Order:        Key:

Intro x 4          ~ = Ring out 
Verse x 2          p = Pull off
Bridge x 2         / = Slide
Chorus x 4
Verse x 2
Bridge x 2
Chorus x 4
Verse x 2
Bridge x 2
Chorus x 4
End. 

- - - - - - - - - - - - - - - - - - - - - - - - - - - - - - - - - - - - | 
Notes:

The strum pattern for the intro is down-up-down [normal Tempo] -up-down-up- [Double Tempo]
Same deal in the Verse's 2nd alternation - as indicated by the closer notes 
instead of the 'pause'.
This song could be played in Drop D aswell, but it's not necessary. No notes reach below E, 
And it's all just power chords. Also.. In the bridge, it sounds like there could be a 
Second guitar playing E|-6/7-7777p6/77777777 etc (but in power chords) through the 
E|7 rooted notes. It's hardly audible though if that's what it is, so not to worry. 

This is one of the coolest L7 songs in my opinion :)
Enjoy!
"            
Hard to play? Try these video lessons and learn fast. | Correct




comments powered by Disqus
↑ Back to top | Tablatures and chords are parodies/interpretations of the original songs. You may use it for private study, scholarship, research or language learning purposes only