» » »

Andres Bass tabs (ver.1)

Artists:  A B C D E F G H I J K L M N O P Q R S T U V W X Y Z # 

Andres Bass tabs (ver.1)

L7
Rating:
4/5 (3 votes)

Hard to play? Try these video lessons and learn fast.
                L7-Andres
Hungry For Stink (1994)

Standard Tuning

Intro: 

   E                      F#  G F#     E                      F#  G F# G 
G|-----------------|-----------------|-----------------|-----------------|
D|-----------------|-----------------|-----------------|-----------------|
A|-----------------|-----------------|-----------------|-----------------|
E|-0---0-----0---0-|---0-0-2---3-2---|-0---0-----0---0-|---0-0-2---3-2-3-|

   E                      F#  G F#     E                      F#  G F# G 
G|-----------------|-----------------|-----------------|-----------------|
D|-----------------|-----------------|-----------------|-----------------|
A|-----------------|-----------------|-----------------|-----------------|
E|-0---0-----0---0-|---0-0-2---3-2---|-0---0-----0---0-|---0-0-2---3-2-3-|

Verse 1:

   E                       F#  G F#     E                      F#  G F# G 
G|-----------------|-----------------|-----------------|-----------------|
D|-----------------|-----------------|-----------------|-----------------|
A|-----------------|-----------------|-----------------|-----------------|
E|-0---0-----0---0-|---0-0-2---3-2---|-0---0-----0---0-|---0-0-2---3-2-3-|

   E                      F#  G F#     E                      F#  G F# G 
G|-----------------|-----------------|-----------------|-----------------|
D|-----------------|-----------------|-----------------|-----------------|
A|-----------------|-----------------|-----------------|-----------------|
E|-0---0-----0---0-|---0-0-2---3-2---|-0---0-----0---0-|---0-0-2---3-2-3-|

Chorus 1:

   F                 A                 E                            
G|-----------------|-----------------|-----------------|-----------------|
D|-----------------|-----------------|-----------------|-----------------|
A|-----------------|-----------------|-----------------|-----------------|
E|-1---1-1-1-1-1-1-|-5-5-5-5-5-5-5-5-|-0---0-----0---0-|---0-0-0---0-0---|

   F                 A                 E                      F#   G F#      
G|-----------------|-----------------|-----------------|-----------------|
D|-----------------|-----------------|-----------------|-----------------|
A|-----------------|-----------------|-----------------|-----------------|
E|-1---1-1-1-1-1-1-|-5-5-5-5-5-5-5-5-|-0---0-----0---0-|---0-0-2---3-2---|

Bridge: 

   E                      F#  G F#     E                      F#  G F# G 
G|-----------------|-----------------|-----------------|-----------------|
D|-----------------|-----------------|-----------------|-----------------|
A|-----------------|-----------------|-----------------|-----------------|
E|-0---0-----0---0-|---0-0-2---3-2---|-0---0-----0---0-|---0-0-2---3-2-3-|

Verse 2:

   E                      F#  G F#     E                      F#  G F# G 
G|-----------------|-----------------|-----------------|-----------------|
D|-----------------|-----------------|-----------------|-----------------|
A|-----------------|-----------------|-----------------|-----------------|
E|-0---0-----0---0-|---0-0-2---3-2---|-0---0-----0---0-|---0-0-2---3-2-3-|

   E                      F#  G F#     E                      F#  G F# G 
G|-----------------|-----------------|-----------------|-----------------|
D|-----------------|-----------------|-----------------|-----------------|
A|-----------------|-----------------|-----------------|-----------------|
E|-0---0-----0---0-|---0-0-2---3-2---|-0---0-----0---0-|---0-0-2---3-2-3-|


Chorus 2:

   F                 A                 E                            
G|-----------------|-----------------|-----------------|-----------------|
D|-----------------|-----------------|-----------------|-----------------|
A|-----------------|-----------------|-----------------|-----------------|
E|-1---1-1-1-1-1-1-|-5-5-5-5-5-5-5-5-|-0---0-----0---0-|---0-0-0---0-0---|

   F                 A                 E                            
G|-----------------|-----------------|-----------------|-----------------|
D|-----------------|-----------------|-----------------|-----------------|
A|-----------------|-----------------|-----------------|-----------------|
E|-1---1-1-1-1-1-1-|-5-5-5-5-5-5-5-5-|-0---0-----0---0-|---0-0-0---0-0---|

   F                 A                 E                            
G|-----------------|-----------------|-----------------|-----------------|
D|-----------------|-----------------|-----------------|-----------------|
A|-----------------|-----------------|-----------------|-----------------|
E|-1---1-1-1-1-1-1-|-5-5-5-5-5-5-5-5-|-0---0-----0---0-|---0-0-0---0-0---|

   F                 A                 E                            
G|-----------------|-----------------|-----------------|-----------------|
D|-----------------|-----------------|-----------------|-----------------|
A|-----------------|-----------------|-----------------|-----------------|
E|-1---1-1-1-1-1-1-|-5-5-5-5-5-5-5-5-|-0---0-----0---0-|---0-0-2---3-2---|

Guitar Solo:

   E                      F#  G F#     E                      F#  G F# G 
G|-----------------|-----------------|-----------------|-----------------|
D|-----------------|-----------------|-----------------|-----------------|
A|-----------------|-----------------|-----------------|-----------------|
E|-0---0-----0---0-|---0-0-2---3-2---|-0---0-----0---0-|---0-0-2---3-2-3-|

   E                      F#  G F#     E                      F#  G F# G 
G|-----------------|-----------------|-----------------|-----------------|
D|-----------------|-----------------|-----------------|-----------------|
A|-----------------|-----------------|-----------------|-----------------|
E|-0---0-----0---0-|---0-0-2---3-2---|-0---0-----0---0-|---0-0-2---3-2-3-|

Verse 3:

   E                      F#  G F#     E                      F#  G F# G 
G|-----------------|-----------------|-----------------|-----------------|
D|-----------------|-----------------|-----------------|-----------------|
A|-----------------|-----------------|-----------------|-----------------|
E|-0---0-----0---0-|---0-0-2---3-2---|-0---0-----0---0-|---0-0-2---3-2-3-|

   E                      F#  G F#     E                      F#  G F# G 
G|-----------------|-----------------|-----------------|-----------------|
D|-----------------|-----------------|-----------------|-----------------|
A|-----------------|-----------------|-----------------|-----------------|
E|-0---0-----0---0-|---0-0-2---3-2---|-0---0-----0---0-|---0-0-2---3-2-3-|

Chorus 3:

   F                 A                 E                            
G|-----------------|-----------------|-----------------|-----------------|
D|-----------------|-----------------|-----------------|-----------------|
A|-----------------|-----------------|-----------------|-----------------|
E|-1---1-1-1-1-1-1-|-5-5-5-5-5-5-5-5-|-0---0-----0---0-|---0-0-0---0-0---|

   F                 A                 E                      F#   G F#      
G|-----------------|-----------------|-----------------|-----------------|
D|-----------------|-----------------|-----------------|-----------------|
A|-----------------|-----------------|-----------------|-----------------|
E|-1---1-1-1-1-1-1-|-5-5-5-5-5-5-5-5-|-0---0-----0---0-|---0-0-2---3-2---|

   F                 A                 E                      F#   G F#      
G|-----------------|-----------------|-----------------|-----------------|
D|-----------------|-----------------|-----------------|-----------------|
A|-----------------|-----------------|-----------------|-----------------|
E|-1---1-1-1-1-1-1-|-5-5-5-5-5-5-5-5-|-0---0-----0---0-|---0-0-2---3-2---|

   F                 A                 E                      F#   G F#      
G|-----------------|-----------------|-----------------|-----------------|
D|-----------------|-----------------|-----------------|-----------------|
A|-----------------|-----------------|-----------------|-----------------|
E|-1---1-1-1-1-1-1-|-5-5-5-5-5-5-5-5-|-0---0-----0---0-|---0-0-2---3-2---|

(Slow down here) 

   F                 A                 E                        
G|-----------------|-----------------|-----------------|-----------------|
D|-----------------|-----------------|-----------------|-----------------|
A|-----------------|-----------------|-----------------|-----------------|
E|-1---1-1-1-1-1-1-|-5-5-5-5-5-5-5-5-|-0---0---0---0---|-0---------------|



 
            
Hard to play? Try these video lessons and learn fast. | Correct




comments powered by Disqus
↑ Back to top | Tablatures and chords are parodies/interpretations of the original songs. You may use it for private study, scholarship, research or language learning purposes only