» » »

Kyo, Une Derniere Danse Tabs (ver.1)

Artists:  A B C D E F G H I J K L M N O P Q R S T U V W X Y Z # 

Une Derniere Danse Tabs (ver.1)

Kyo Tabs
 Rating:
3.8/5 (5 votes)
Une Derniere Danse lessons Tabs too difficult? Try these video lessons and learn fast
                ----------------------------------------------------------------------------
----------------------------------------------------------------------------
Tuning:EADGBe

These chords can be played if the bass starts: D minor, Bb, Fmajor, Cmajor
          
           E   A   D   G   B   e  
Dminor     x   5   7   7   6   5
Bb         6   8   8   7   6   6
Fmajor     x   8  10  10  10   x
Cmajor     8  10  10   9   8   8

At 0:23-0:47 This part (see below) is repeated during the song


e|-------------------------------------------------------------------------|
B|-----------11--10----------------10--8-----------------------------------|
G|-7-10-7-10--------10----10----10-----------------------------------------|
D|---------------------10----10--------------------------------------------|
A|-------------------------------------------------------------------------|
E|-------------------------------------------------------------------------|

Or: 

e|-------------------------------------------------------------------------|
B|-------------------------------------------------------------------------|
G|-------------15--14----------------14--12--------------------------------|
D|-12-15-12-15--------15----15----15---------------------------------------|
A|-----------------------15----15------------------------------------------|
E|-------------------------------------------------------------------------|

At 1:03 
(this part will be repeated at 1:59 with slides):

   Dminor       Bb       Fmajor     Cmajor   (<-- chords that can be played)
e|-------------------------------------------------------------------------|
B|-------------------------------------------------------------------------|
G|-----7(\5)---------------7-----------------------------------------------|
D|---7-----------8------8----8------------10-------------------------------|
A|-5-----------8-----8-----------------10----------------------------------|
E|-----------6-------------------(6/)8-------------------------------------|

\ = slide down
/ = slide up

This is all I can do for now. I hope this helps. 
Please correct me if something is wrong.


CAPO VERSION: Capo at 5th fret

Chords that can be used when the bass starts: Aminor, Fmajor, C, G

at 0:23-0:47 (This part will be repeated during the song)

e|---------1--0-----------0------------------------------------------------|
B|---1---1------1---1---1---3----------------------------------------------|
G|-2---2----------0---0----------------------------------------------------|
D|-------------------------------------------------------------------------|
A|-------------------------------------------------------------------------|
E|-------------------------------------------------------------------------|

At 1:03 
(this part will be repeated at 1:59 with slides):

   Aminor       Fmajor    C         G        (<-- chords that can be played)
e|-------------------------------------------------------------------------|
B|-------------------------------------------------------------------------|
G|-----2(\)----------------2-------------0---------------------------------|
D|---2-----------3------3----3---------0-----------------------------------|
A|-0-----------3------3----------------------------------------------------|
E|-----------1--------------------(/)3-------------------------------------|

\ = slide down
/ = slide up
            
Submit corrections

comments powered by Disqus
↑ Back to top | Kyo Tabs for Une Derniere Danse. Lyrics for acoustic guitar and electric guitar. Tablatures and chords are parodies/interpretations of the original songs. You may use it for private study, scholarship, research or language learning purposes only