» » »

Kyo, Tout Envoyer En Lair Tabs (ver.2)

Artists:  A B C D E F G H I J K L M N O P Q R S T U V W X Y Z # 

Tout Envoyer En Lair Tabs (ver.2)

Kyo Tabs
 Rating:
4/5 (4 votes)
Tout Envoyer En Lair lessons Tabs too difficult? Try these video lessons and learn fast
                KYO - TOUT ENVOYER EN L'AIR


Intro

Synth (Guitar 1)
e|---------------------------------------|
B|---------------------------------------|
G|---------------------------------------|
D|--------7--------10--------7-----------|
A|-88-7-8---88-7-8----88-7-8---88-7-8-10-|
E|---------------------------------------|

(pause)

Synth (Guitar 1)
e|----------------------------------------|
B|----------------------------------------|
G|----------------------------------------| X2
D|--------7--------10--------7------------|
A|-88-7-8---88-7-8----88-7-8---88-7-8-10--|
E|----------------------------------------|

Guitar 2
e|--------------------------------------|
B|--------------------------------------|
G|--------------------------------------| X2
D|-10-10----7-7-----5-5-----5-5---------|
A|-8--8-----5-5-----3-3-----3-3---------|
E|--------------------------------------|

Verses X2

Laisse, ce qui te retient délaisse...

Guitar
e|---------------------------------|
B|---------------------------------|
G|---5---5---5---5---5---5---5---5-|
D|-3---3---3---3---3---3---3---3---|
A|---------------------------------|
E|---------------------------------|

e|-----------------------------------------|
B|-----------------------------------------|
G|-------5-------5-------5-------5-------5-|
D|---3-------3-------3-------3-------3-----|
A|-5---5---5---5---5---5---5---5---5---5---|
E|-----------------------------------------|

e|-----------------------------------------|
B|-----------------------------------------|
G|-------5-------5-------5-------5-------5-|
D|---3-------3-------3-------3-------3-----|
A|-5---5---5---5---5---5---5---5---5---5---|
E|-----------------------------------------|

e|---------------------------------|
B|---------------------------------|
G|-------2-------3-------5-------3-|
D|---3-------3-------3-------3-----|
A|-1---1---1---1---1---1---1---1---|
E|---------------------------------|

Chorus X2

Tout envoyer en l'air...

Guitar 1
e|-----------------------------------------|
B|-----------------------------------------|
G|-----------------------------------------|
D|-3-3-3-3/10-10-10-10/12-12-12-12/8-8-8-8-|
A|-3-3-3-3/8--8--8--8-/12-12-12-12/8-8-8-8-|
E|-1-1-1-1/8--8--8--8-/10-10-10-10/6-6-6-6-|

e|--------------------------------------------|
B|--------------------------------------------|
G|--------------------------------------------|
D|12-12-12-12/8-8-8-8/10-10-10-10-10-10-10-10-|
A|12-12-12-12/8-8-8-8/10-10-10-10-10-10-10-10-|
E|10-10-10-10/6-6-6-6/8--8--8--8--8--8--8--8--|

Guitar 2
e|-----------------------------------------|
B|-----------------------------------------|
G|-----------------------------------------|
D|-10---10---------------------------------|
A|-8----8---10-10-10-10--12----12--8-8-8-8-|
E|----------8--8--8--8---10----10--6-6-6-6-|

e|----------------------------------------------|
B|----------------------------------------------|
G|----------------------------------------------|
D|----------------------------------------------|
A|-12----12--8-8-8-8-10----10-10-10-10-10-10-10-|
E|-10----10--6-6-6-6-8-----8--8--8--8--8--8--8--|

Outro X4

Synth (Guitar 1)
e|---------------------------------------|
B|---------------------------------------|
G|---------------------------------------|
D|--------7--------10--------7-----------|
A|-88-7-8---88-7-8----88-7-8---88-7-8-10-|
E|---------------------------------------|

Guitar 2
e|-----------------------------------------------|
B|-----------------------------------------------|
G|-----------------------------------------------|
D|-10---10---------------------------------------|
A|-8----8------10---10------12----12------8----8-|
E|-------------8----8-------10----10------6----6-|

e|-----------------------------------------------|
B|-----------------------------------------------|
G|-----------------------------------------------|
D|-----------------------------------------------|
A|-12----12------8----8------10----10----10---10-|
E|-10----10------6----6------8-----8------8----8-|
            
Submit corrections

comments powered by Disqus
↑ Back to top | Kyo Tabs for Tout Envoyer En Lair. Lyrics for acoustic guitar and electric guitar. Tablatures and chords are parodies/interpretations of the original songs. You may use it for private study, scholarship, research or language learning purposes only