» » »

Je Cours Tabs (ver.1)

Artists:  A B C D E F G H I J K L M N O P Q R S T U V W X Y Z # 

Je Cours Tabs (ver.1)

Kyo
Rating:
5/5 (1 vote)

Hard to play? Try these video lessons and learn fast.
                -----------------------------------
-----------------------------------

Tuning: Standard


Intro

e|-------------------------------------|
B|--------7-----------4----------------|
G|--------------------------------4----|
D|-----9-----------6-------------------|  x2
A|--7-----------4--------------6-------|
E|--------------------------4----------|

e|-------------------------------------|
B|-------------------------------------|
G|--9-9-9-9--6-6-6-6-------------------|
D|--9-9-9-9--6-6-6-6--6-6-6-6--6-6--6--|  x2
A|--7-7-7-7--4-4-4-4--6-6-6-6--6-6--6--|
E|--------------------4-4-4-4--4-4--4--|

Fais moi de la place
Juste un peu de place
Pour ne pas qu'on m'efface
J'n'ai pas trop d'amis
Regarder en classe
C'est pas l'extase
J'ai beaucoup d'espace
Je suis seul et personne à qui le dire


Verse

e|-------------------------------------|
B|-5-5-5-5--4-4-4-4-4-4-4-4-4--5-5-5-5-|
G|-------------------------------------|
D|-------------------------------------|  x2
A|-------------------------------------|
E|-------------------------------------|

C'est pas le pire
Quand la pause arrive
Je n'suis pas tranquille
Il faut que je m'éclipse
Ou alors, accuser le coup
Où dehors


Chorus

|--------------------------------------|
|--------------------------------------|
|-9------6-----------------------------|
|-9------6-----6---------6---7--7------|  x2
|-7------4-----6---------6---7--7------|
|--------------4---------4---5--5------|

Faudra que je cours
Tous les jours
Faudra-t-il que je cours
Jusqu'au bout


Je n'ai plus de souffle
Je veux que l'on m'écoute
Plus de doutes
Pour m'en sortir
Je dois tenir et construire
Mon futur

Verse

e|-------------------------------------|
B|-5-5-5-5--4-4-4-4-4-4-4-4-4--5-5-5-5-|
G|-------------------------------------|
D|-------------------------------------|  x2
A|-------------------------------------|
E|-------------------------------------|

Partir à la conquête
D'une vie moins dure
Sûr que c'est pas gagné
Mais j'assure mes arrières
Pour connaître l'amour
Et le monde


Chorus

|--------------------------------------|
|--------------------------------------|
|-9------6-----------------------------|
|-9------6-----6---------6---7--7------|  x4
|-7------4-----6---------6---7--7------|
|--------------4---------4---5--5------|

Faudra que je cours
Tous les jours
Faudra-t-il que je cours
Jusqu'au bout
Pour connaître le monde
Et l'amour
Il faudra que je cours
Tous les jours


Intro

e|-------------------------------------|
B|--------7-----------4----------------|
G|--------------------------------4----|
D|-----9-----------6-------------------|  x3
A|--7-----------4--------------6-------|
E|--------------------------4----------|

J'voudrais m'arrêter
J'peux plus respirer
Dans ce monde parmi vous
J'voudrais m'arrêter
J'peux plus respirer
Dans ce monde parmi vous


e|-------------------------------------|
B|-------------------------------------|
G|--9-9-9-9--6-6-6-6-------------------|
D|--9-9-9-9--6-6-6-6--6-6-6-6--6-6--6--|  x2
A|--7-7-7-7--4-4-4-4--6-6-6-6--6-6--6--|
E|--------------------4-4-4-4--4-4--4--|

J'voudrais m'arrêter
J'peux plus respirer
Dans ce monde parmi vous
J'voudrais m'arrêter
J'peux plus respirer
Dans ce monde parmi vous


Chorus

|--------------------------------------|
|--------------------------------------|
|-9------6-----------------------------|
|-9------6-----6---------6---7--7------|  x8
|-7------4-----6---------6---7--7------|
|--------------4---------4---5--5------|

Faudra que je cours
Tous les jours
Faudra-t-il que je cours
Jusqu'au bout

Pour connaître le monde
Et l'amour
Il faudra que je cours
Tous les jours

Fais moi de la place
Juste un peu de place
Pour ne pas qu'on m'efface
Fais moi de la place
Juste un peu de place
Pour ne pas qu'on m'efface
Fais moi de la place
            
Hard to play? Try these video lessons and learn fast. | Correct




comments powered by Disqus
↑ Back to top | Tablatures and chords are parodies/interpretations of the original songs. You may use it for private study, scholarship, research or language learning purposes only