» » »

Kvelertak, Ulvetid Tabs (ver.1)

Artists:  A B C D E F G H I J K L M N O P Q R S T U V W X Y Z # 

Ulvetid Tabs (ver.1)

Kvelertak Tabs
 Rating:
4.2/5 (5 votes)
Ulvetid lessons Tabs too difficult? Try these video lessons and learn fast
                Kvelertak - Ulvetid

Instrument: Guitar
Tuning: Drop D



Intro

e||-----------------------------------------------------------------|
B||-----------------------------------------------------------------|
G||-----------------------------------------------------------------|
D||-7-7-7-7-7-7-7-7-7-7-7-7-7-7-7-7-0-0-0-0-0-0-0-0-3-3-3-3-3-3-3-3-|
A||-7-7-7-7-7-7-7-7-7-7-7-7-7-7-7-7-0-0-0-0-0-0-0-0-3-3-3-3-3-3-3-3-|
D||-7-7-7-7-7-7-7-7-7-7-7-7-7-7-7-7-0-0-0-0-0-0-0-0-3-3-3-3-3-3-3-3-| x2


Verse
Guitar #1
e||-----------------------------------------------------------------|
B||-----------------------------------------------------------------|
G||-----------------------------------------------------------------|
D||-7-7-7-7-7-7-7-7-7-7-7-7-7-7-7-7-0-0-0-0-0-0-0-0-3-3-3-3-3-3-3-3-|
A||-7-7-7-7-7-7-7-7-7-7-7-7-7-7-7-7-0-0-0-0-0-0-0-0-3-3-3-3-3-3-3-3-|
D||-7-7-7-7-7-7-7-7-7-7-7-7-7-7-7-7-0-0-0-0-0-0-0-0-3-3-3-3-3-3-3-3-| x3

e||-------------------------------------------------|
B||-------------------------------------------------|
G||-------------------------------------------------|
D||-7-7-7-7-7-7-7-7-7-7-7-7-7-7-7-7-0-0-0-0-0-0-0-0-|
A||-7-7-7-7-7-7-7-7-7-7-7-7-7-7-7-7-0-0-0-0-0-0-0-0-|
D||-7-7-7-7-7-7-7-7-7-7-7-7-7-7-7-7-0-0-0-0-0-0-0-0-|

Guitar #2
e||------------------------------------------------|
B||------------------------------------------------|
G||-9--9--9--8--9--14-16-17-16-14-12-14-7--5--4--5-|
D||-x--x--x--x--x--x--x--x--x--x--x--x--x--x--x--x-|
A||-7--7--7--6--7--12-14-15-14-12-10-12-5--3--2--3-|
D||------------------------------------------------| x3

e||-------------------------------------|
B||-------------------------------------|
G||-9--9--9--8--9--14-16-17-16-14-12-14-|
D||-x--x--x--x--x--x--x--x--x--x--x--x--|
A||-7--7--7--6--7--12-14-15-14-12-10-12-|
D||-------------------------------------|


Chorus

e||----------------------------|
B||----------------------------|
G||----------------------------|
D||-3--3-------5--5-5-0--0-0-0-|
A||-3--3-------5--5-5-0--0-0-0-|
D||-3--3-(24x)-5--5-5-0--0-0-0-|

e||-----------------------------------------------------------------|
B||-----------------------------------------------------------------|
G||-----------------------------------------------------------------|
D||-7-7-7-7-7-7-7-7-7-7-7-7-7-7-7-7-0-0-0-0-0-0-0-0-3-3-3-3-3-3-3-3-|
A||-7-7-7-7-7-7-7-7-7-7-7-7-7-7-7-7-0-0-0-0-0-0-0-0-3-3-3-3-3-3-3-3-|
D||-7-7-7-7-7-7-7-7-7-7-7-7-7-7-7-7-0-0-0-0-0-0-0-0-3-3-3-3-3-3-3-3-| x2


Verse
Guitar #1
e||-----------------------------------------------------------------|
B||-----------------------------------------------------------------|
G||-----------------------------------------------------------------|
D||-7-7-7-7-7-7-7-7-7-7-7-7-7-7-7-7-0-0-0-0-0-0-0-0-3-3-3-3-3-3-3-3-|
A||-7-7-7-7-7-7-7-7-7-7-7-7-7-7-7-7-0-0-0-0-0-0-0-0-3-3-3-3-3-3-3-3-|
D||-7-7-7-7-7-7-7-7-7-7-7-7-7-7-7-7-0-0-0-0-0-0-0-0-3-3-3-3-3-3-3-3-| x3

e||-------------------------------------------------|
B||-------------------------------------------------|
G||-------------------------------------------------|
D||-7-7-7-7-7-7-7-7-7-7-7-7-7-7-7-7-0-0-0-0-0-0-0-0-|
A||-7-7-7-7-7-7-7-7-7-7-7-7-7-7-7-7-0-0-0-0-0-0-0-0-|
D||-7-7-7-7-7-7-7-7-7-7-7-7-7-7-7-7-0-0-0-0-0-0-0-0-|

Guitar #2
e||------------------------------------------------|
B||------------------------------------------------|
G||-9--9--9--8--9--14-16-17-16-14-12-14-7--5--4--5-|
D||-x--x--x--x--x--x--x--x--x--x--x--x--x--x--x--x-|
A||-7--7--7--6--7--12-14-15-14-12-10-12-5--3--2--3-|
D||------------------------------------------------| x3

e||-------------------------------------|
B||-------------------------------------|
G||-9--9--9--8--9--14-16-17-16-14-12-14-|
D||-x--x--x--x--x--x--x--x--x--x--x--x--|
A||-7--7--7--6--7--12-14-15-14-12-10-12-|
D||-------------------------------------|


Chorus

e||----------------------------|
B||----------------------------|
G||----------------------------|
D||-3--3-------5--5-5-0--0-0-0-|
A||-3--3-------5--5-5-0--0-0-0-|
D||-3--3-(24x)-5--5-5-0--0-0-0-|

e||-----------------------------------------------------------------|
B||-----------------------------------------------------------------|
G||-----------------------------------------------------------------|
D||-7-7-7-7-7-7-7-7-7-7-7-7-7-7-7-7-0-0-0-0-0-0-0-0-3-3-3-3-3-3-3-3-|
A||-7-7-7-7-7-7-7-7-7-7-7-7-7-7-7-7-0-0-0-0-0-0-0-0-3-3-3-3-3-3-3-3-|
D||-7-7-7-7-7-7-7-7-7-7-7-7-7-7-7-7-0-0-0-0-0-0-0-0-3-3-3-3-3-3-3-3-| x4


Break
Guitar #1
e||------------------------------------|
B||------------------------------------|
G||---------10-------12-------11-------|
D||-7-------10-------12-------12-------|
A||-7-------8--(16x)-10-(16x)-9--(16x)-|
D||-7-(16x)----------------------------| x4

Guitar #2
e||-------------------------------------------------|
B||-------------------------------------------------|
G||-9--14--16/17\16-14-16-17-16-14-12-14-7--5--9--5-|
D||-x--x---x--x--x--x--x--x--x--x--x--x--x--x--x--x-|
A||-7--12--14/15\14-12-14-15-14-12-10-12-5--3--7--3-|
D||-------------------------------------------------| x4


e||----------------------------------------|
B||----------------------------------------|
G||----------------------------------------|
D||-7-------6--5--4--3-------5--5-5-0--0-0-|
A||-7-------6--5--4--3-------5--5-5-0--0-0-|
D||-7-(28x)-6--5--4--3-(24x)-5--5-5-0--0-0-|

e||------------------------------------------------------------|
B||------------------------------------------------------------|
G||-------------------------------------------------------5--5-|
D||-------------------------------------------------7--7--5--5-|
A||-7--7-9-7-107-9-7--7-9-7-107-9-7--7-9-7-107-9-7--7--7--3--3-|
D||-7--7-7-7-7-7-7-7--7-7-7-7-7-7-7--7-7-7-7-7-7-7--7--7-------|

e||----------------------------|
B||----------------------------|
G||----------------------------|
D||-3--3-------5--5-5-0--0-0-0-|
A||-3--3-------5--5-5-0--0-0-0-|
D||-3--3-(24x)-5--5-5-0--0-0-0-|


Chorus

e||-----------------------------------------------------------------|
B||-----------------------------------------------------------------|
G||-----------------------------------------------------------------|
D||-7-7-7-7-7-7-7-7-7-7-7-7-7-7-7-7-0-0-0-0-0-0-0-0-3-3-3-3-3-3-3-3-|
A||-7-7-7-7-7-7-7-7-7-7-7-7-7-7-7-7-0-0-0-0-0-0-0-0-3-3-3-3-3-3-3-3-|
D||-7-7-7-7-7-7-7-7-7-7-7-7-7-7-7-7-0-0-0-0-0-0-0-0-3-3-3-3-3-3-3-3-| x4

End with

e||--------------|
B||--------------|
G||--------------|
D||-10--9--8--7--|
A||-10--9--8--7--|
D||-10--9--8--7--|
            
Submit corrections

comments powered by Disqus
↑ Back to top | Kvelertak Tabs for Ulvetid. Lyrics for acoustic guitar and electric guitar. Tablatures and chords are parodies/interpretations of the original songs. You may use it for private study, scholarship, research or language learning purposes only