>
 >
Ultrydd Dei Svake

Ultrydd Dei Svake Guitar Tabs

Kvelertak - Ultrydd Dei Svake chords, tabs, tablatures, lyrics

Guitar lessons | Add/correct | Request | Top 50 tabs Artists:  A B C D E F G H I J K L M N O P Q R S T U V W X Y Z 0-9

Ultrydd Dei Svake Guitar Tabs – Kvelertak

CD, Sheet music, Poster

Do you like Ultrydd Dei Svake? Share with your friends now
Tabs
Kvelertak - Ultrydd Dei Svake

Instrument: Guitar
Tuning: eBGDAE



Intro

e||---------|
B||---------|
G||-9~------|
D||-8~------|
A||-7~------|
E||-0~------|

e||------------------|----------------------------------|
B||------------------|----------------------------------|
G||-9------10-9------|-9------10-9----------------------|
D||-8------9--8------|-8------9--8----------------------|
A||-7------8--7------|-7------8--7----------------1-2---|
E||------------------|----------------------0-1-0-----0-|

e||------------------------------------------------------------------|
B||------------------------------------------------------------------|
G||-9-------------------------10-9---------------------9-10-13-12-10-|
D||-8-------------------------9--8---------------------8-9--12-11-9--|
A||-7-------------------------8--7---------------------7-8--11-10-8--|
E||---0-0-0-0-0-0-0-0-0-0-0-0------0-0-0-0-0-0-0-0-0-0---------------|
pm    * * * * * * * * * * * *      * * * * * * * * * *

e||----------------------------------------------------|
B||----------------------------------------------------|
G||-9-------------------------10-9---------------------|
D||-8-------------------------9--8---------------------|
A||-7-------------------------8--7-----------2-2-2-2-2-|
E||---0-0-0-0-0-0-0-0-0-0-0-0------0-0-0-0-0-0-0-0-0-0-|
pm    * * * * * * * * * * * *      * * * * * 


Verse

e||-----------------------------------|--------------------------------|
B||-----------------------------------|--------------------------------|
G||-7-10-8-9--9-9-9-9-9-9-9-9-9-9-9-9-|-7-10-9-8--8-8-8-8-8-8----------|
D||-7-10-8-9--9-9-9-9-9-9-9-9-9-9-9-9-|-7-10-9-8--8-8-8-8-8-8-8--8-8-8-|
A||-5-8--6-7--7-7-7-7-7-7-7-7-7-7-7-7-|-5-8--7-6--6-6-6-6-6-6-8--8-8-8-|
E||-----------------------------------|-----------------------6--6-6-6-| x4


Chorus

e||----------------------------------------------------|
B||----------------------------------------------------|
G||-------5--5--------7--7--9--9-----------------------|
D||-3-3-3-5--5--5-5-5-7--7--9--9-----------5-4---------|
A||-3-3-3-3--3--5-5-5-5--5--7--7-5-7-7----------5--7---|
E||-1-1-1-------3-3-3-------0--0--------0--------------| x3

e||------------------------|
B||------------------------|
G||-------5--5--------7--7-|
D||-3-3-3-5--5--5-5-5-7--7-|
A||-3-3-3-3--3--5-5-5-5--5-|
E||-1-1-1-------3-3-3------|


e||------------------------------------------------------------------|
B||------------------------------------------------------------------|
G||-9-------------------------10-9---------------------9-10-13-12-10-|
D||-8-------------------------9--8---------------------8-9--12-11-9--|
A||-7-------------------------8--7---------------------7-8--11-10-8--|
E||---0-0-0-0-0-0-0-0-0-0-0-0------0-0-0-0-0-0-0-0-0-0---------------|


e||----------------------------------------------------|
B||----------------------------------------------------|
G||-9-------------------------10-9---------------------|
D||-8-------------------------9--8---------------------|
A||-7-------------------------8--7---------------------|
E||---0-0-0-0-0-0-0-0-0-0-0-0------0-0-0-0-0-0-0-0-0-0-|


Verse

e||-----------------------------------|--------------------------------|
B||-----------------------------------|--------------------------------|
G||-7-10-8-9--9-9-9-9-9-9-9-9-9-9-9-9-|-7-10-9-8--8-8-8-8-8-8----------|
D||-7-10-8-9--9-9-9-9-9-9-9-9-9-9-9-9-|-7-10-9-8--8-8-8-8-8-8-8--8-8-8-|
A||-5-8--6-7--7-7-7-7-7-7-7-7-7-7-7-7-|-5-8--7-6--6-6-6-6-6-6-8--8-8-8-|
E||-----------------------------------|-----------------------6--6-6-6-| x4


Chorus

e||----------------------------------------------------|
B||----------------------------------------------------|
G||-------5--5--------7--7--9--9-----------------------|
D||-3-3-3-5--5--5-5-5-7--7--9--9-----------5-4---------|
A||-3-3-3-3--3--5-5-5-5--5--7--7-5-7-7----------5--7---|
E||-1-1-1-------3-3-3-------0--0--------0--------------| x3

e||------------------------|
B||------------------------|
G||-------5--5--------7--7-|
D||-3-3-3-5--5--5-5-5-7--7-|
A||-3-3-3-3--3--5-5-5-5--5-|
E||-1-1-1-------3-3-3------|


e||------------------------------------------------------------------|
B||------------------------------------------------------------------|
G||-9-------------------------10-9---------------------9-10-13-12-10-|
D||-8-------------------------9--8---------------------8-9--12-11-9--|
A||-7-------------------------8--7---------------------7-8--11-10-8--|
E||---0-0-0-0-0-0-0-0-0-0-0-0------0-0-0-0-0-0-0-0-0-0---------------|


e||------------------------------------------------------------------|
B||------------------------------------------------------------------|
G||-9-------------------------10-9-----------------------------------|
D||-8-------------------------9--8-----------------------------------|
A||-7-------------------------8--7-----------------------------------|
E||---0-0-0-0-0-0-0-0-0-0-0-0------0-0-0-0-0-0-0-0-0-0-0-0-0-0-0-0-0-|


Outro

Play E--A--G-D





Comments


Popular Kvelertak tabs & chords
Apenbaring Intro Tabs
Blodtorst Tabs
Fossegrim Tabs
Liktorn Tabs
Nekroskop Tabs
Offernatt Tabs
Ordsmedar Av Rang Tabs
Sjohyenar Havets Herrer Tabs
Sultans Of Satan Tabs
Ulvetid Tabs


Song lyrics



↑ Back to top | Tablatures and chords are parodies/interpretations of the original songs. You may use it for private study, scholarship, research or language learning purposes only
© 2014 AZChords.com Contact us | Privacy policy | DMCA | Add/correct tabs | Request tabs | Top 50 tabs