» » »

Sjhyenar Bass tabs (ver.1)

Artists:  A B C D E F G H I J K L M N O P Q R S T U V W X Y Z # 

Sjhyenar Bass tabs (ver.1)

Kvelertak
Rating:
0/5 (0 votes)

Hard to play? Try these video lessons and learn fast.
                intro
G||--------------------------------------|
D||--------------------------------------|
A||-3-5-5-0-0-1-1-0-1-3-3----------------|
D||-----------------------3-3-5-5-0------|

Verse
G||----------------------------------------|
D||----------------------------------------|
A||-8-8-8--6--5--6--5-----5-5-----5-5------|
D||-------------------0-0-----0-0-----0-0--| x3

G||-----------------------------------------|
D||-----------------------------------------|
A||-8-8-8--6--5--6--4-4-4-4-----------------|
D||-------------------------4-4-4-4-6-6-6-6-|

Chorus
G||--------------------------------------|
D||--------------------------------------|
A||-3-5-5-0-0-1-1-0-1-3-3----------------|
D||-----------------------3-3-5-5-0------|

G||-------------------------------|
D||-------------------------------|
A||-------------------------------|
D||-0-0-0-0-5-7--8--8-8-8-8-8-8-8-|

then
G||-----------------------------------------|-----------------------------------------|
D||-----------------------------------------|-----------------------------------------|
A||-----------------------------------------|-----------------------------------------|
D||-0-0-0-0-10-12--10--10-10-10-10-10-10-10-|-0-0-0-0-10-12--10--10-10-10-10-10-10-10-|

G||---------------------------------|-------------------------------|
D||---------------------------------|-------------------------------|
A||---------------------------------|-------------------------------|
D||-0-0-0-0-12-10--8--8-8-8-8-8-8-8-|-0-0-0-0-5-7--8--8-8-8-8-8-8-8-|

Chorus
G||--------------------------------------|
D||--------------------------------------|
A||-3-5-5-0-0-1-1-0-1-3-3----------------|
D||-----------------------3-3-5-5-0------|

G||---------------------------------------------------|
D||----------------------------3----------------------|
A||----------------3-5-----------5-3-5----------3-5---|
D||-0----3----0--------0----------------3-5-3-0-------|

Verse
G||----------------------------------------|
D||----------------------------------------|
A||-8-8-8--6--5--6--5-----5-5-----5-5------|
D||-------------------0-0-----0-0-----0-0--| x3

G||-----------------------------------------|
D||-----------------------------------------|
A||-8-8-8--6--5--6--4-4-4-4-----------------|
D||-------------------------4-4-4-4-6-6-6-6-|

then
G||----------------------------------------|----------------------------------------|
D||----------------------------------------|----------------------------------------|
A||----------------------------------------|----------------------------------------|
D||-0-0-12-0-10-12--10--10-10-10--10-10-10-|-0-0-12-0-10-12--10--10-10-10--10-10-10-|

G||----------------------------------|--------------------------------|
D||----------------------------------|--------------------------------|
A||----------------------------------|--------------------------------|
D||-0-0-12-0-12-10--8--8-8-8--8-8-8--|-0-0-0-0-5-7--8--8-8-8--8-8-8-8-|

end with
G||-------------------|
D||-------------------|
A||-------------------|
D||-0--0--5-7--8------|
            
Hard to play? Try these video lessons and learn fast. | Correct




comments powered by Disqus
↑ Back to top | Tablatures and chords are parodies/interpretations of the original songs. You may use it for private study, scholarship, research or language learning purposes only