» » »

Kvelertak, Mjod Bass tabs (ver.2)

Artists:  A B C D E F G H I J K L M N O P Q R S T U V W X Y Z # 

Mjod Bass tabs (ver.2)

Kvelertak Tabs
 Rating:
4/5 (4 votes)
Mjod lessons Tabs too difficult? Try these video lessons and learn fast
1
                -----------------------------------------------------------------------------
			    Mjød - Kvelertak
-----------------------------------------------------------------------------
My first tab, so it's not 100%. But it's really easy and sounds good. 
Hope you like it ^_^
-----------------------------------------------------------------------------


Tuning: Drop D (but standards works as well)
-----------------------------------------------------------------------------


Intro(1) / Chorus

G|--------------------------------------------------------------------------|
D|--------------------------------------------------------------------------|
A|-0--0--0--0--5-5-3-0-0-0-0-5-5-3---------3-3-5----------------------------|
D|---------------------------------3-3-3-3-------5-5-5-5--------------------|

Intro(2)

G|--------------------------------------------------------------------------|
D|--------------------------------------------------------------------------|
A|-0-0-0-0-0-0-0------------------------------------------------------------|
D|--------------------------------------------------------------------------|

Vers(1)

G|--------------------------------------------------------------------------|
D|------------------------------5-5-5---------------------------------------|
A|-3-3-3-3-3-3-3--0-0-0-0-0-0-0-------5-5-5---------------------------------|
D|--------------------------------------------------------------------------| 

Vers(2)

G|--------------------------------------------------------------------------|
D|---------------------------------------------5-5-5------------------------|
A|-0-0-0-0-0-0-0--3-3-3-3-3-3-3--0-0-0-0-0-0-0-------5-5-5------------------|
D|--------------------------------------------------------------------------| 

Order:
Intro(1) x4
Guitar only part
Intro(2) x4
Vers(1) x1
Vers(2) x3
Chorus x2 
Acoustic Guitar Riff
Vers(1) x1
Vers(2) x3
Chorus x4



| /  slide up
| \  slide down
| h  hammer-on
| p  pull-off
| ~  vibrato
| +  harmonic
| x  Mute note
=============================================================================	
            
Submit corrections

comments powered by Disqus
↑ Back to top | Kvelertak Bass for Mjod. Lyrics for acoustic guitar and electric guitar. 1 Tablatures and chords are parodies/interpretations of the original songs. You may use it for private study, scholarship, research or language learning purposes only