» » »

Kvelertak, Mjd Tabs (ver.1)

Artists:  A B C D E F G H I J K L M N O P Q R S T U V W X Y Z # 

Mjd Tabs (ver.1)

Kvelertak Tabs
Rating:
5/5 (3 votes)
Mjd lessons Tabs too difficult? Try these video lessons and learn fast
                This is my first tab so go easy on it :)


Intro:

 PM..................................................
e:---------------------------------------------------|
B:---------------------------------------------------|
G:---------------------------------------------------|
D:---------------------------------------------------|
A:-0-0-(0)-5-5-3-0-0-0-0-5-5-3---------3-3-5---------|
D:-----------------------------3-3-3-3-------5-5-5-5-|


Intro Part 2:
                 PM.......................   
e:---------------------------------------------------|
B:---------------------------------------------------|
G:-2-2-2---(2)---------------------------------------|
D:-2-2-2---(2)-----2-2-2-2-2-2-2-2-2-2-2-2-----------|
A:-0-0-0---(0)-----0-0-0-0-0-0-0-0-0-0-0-0-----------|
D:---------------------------------------------------|


Chorus (Intro Part 3): 

e:---------------------------------------------------| x2
B:---------------------------------------------------|
G:---------------------------------------------------|   
D:-2-2-2--7-7-5-2-2-2-2-7-7-5---------5-5-7----------|
A:-0-0-0--5-5-3-0-0-0-0-5-5-3-3-3-3-3-3-3-5-5-5-5-5--|
D:----------------------------3-3-3-3-------5-5-5-5--|


Main Riff:

e:-------------------------------------------------------------------|x2
B:-------------------------------------------------------------------|
G:-9-9-9-10-9-7-9--12-12-12-13-12-10-12--9-9-9-10-9-7-9--7-7-7-------|
D:-7-7-7-7--7-7-7--10-10-10-13-12-10-12--7-7-7-7--7-7-7--5-5-5-7-7-7-|
A:-------------------------------------------------------------5-5-5-|
D:-------------------------------------------------------------------|

"Nå ska' me ta' ein liten sang!"

Verse (Main Riff also plays together with this)

e:---------------------------------------------|
B:---------------------------------------------|
G:-------------------------------(7-7-7)-------|
D:-5-5-5-6-5-3-5--2-2-2-3-2-0-2--(5-5-5-7-7-7)-|
A:-3-3-3-3-3-3-3--0-0-0-0-0-0-0--------(5-5-5)-|
D:---------------------------------------------|


e:------------------------------------------------------------|
B:------------------------------------------------------------|
G:----------------------------------------------(7-7-7)-------|
D:-2-2-2-3-2-0-2--5-5-5-6-5-3-5--2-2-2-3-2-0-2--(5-5-5-7-7-7)-|
A:-0-0-0-0-0-0-0--3-3-3-3-3-3-3--0-0-0-0-0-0-0--------(5-5-5)-|
D:------------------------------------------------------------|



Intro
Intro Part 2
Chorus (Intro Part 3)
Main Riff
Verse
Chorus
(Acoustic/Clean verse intro)
Verse
(Guitar Scream)
Chorus
Chorus Repeat



If you find playing one part in another, better way 
then just stick with whatever you feel is best. :)

Enjoy! :D
            

comments powered by Disqus
↑ Back to top | Kvelertak Tabs for Mjd. Lyrics for acoustic guitar and electric guitar. Tablatures and chords are parodies/interpretations of the original songs. You may use it for private study, scholarship, research or language learning purposes only