>
 >
Liktorn

Liktorn Guitar Tabs

Kvelertak - Liktorn chords, tabs, tablatures, lyrics

Guitar lessons | Add/correct | Request | Top 50 tabs Artists:  A B C D E F G H I J K L M N O P Q R S T U V W X Y Z 0-9

Liktorn Guitar Tabs – Kvelertak

CD, Sheet music, Poster

Do you like Liktorn? Share with your friends now
Tabs
Kvelertak - Liktorn

Instrument: Guitar
Tuning: eBGDAE



e||-----------------------------------------------------------------|
B||-----------------------------------------------------------------|
G||-9-9-9-9-9-9-9-9-8-8-8-8-5-5-5-5-4-4-4-4---------------------4-4-|
D||-x-x-x-x-x-x-x-x-x-x-x-x-x-x-x-x-x-x-x-x-7-7-7-7-5-5-5-5-4-4-x-x-|
A||-7-7-7-7-7-7-7-7-6-6-6-6-3-3-3-3-2-2-2-2-x-x-x-x-x-x-x-x-x-x-2-2-|
E||-----------------------------------------5-5-5-5-3-3-3-3-2-2-----| x2


e||---------------------------------|---------------------------------|
B||---------------------------------|---------------------------------|
G||---------4---------------4-------|---------4---------------4-------|
D||---6---6---6---6---5---5---5---5-|---4---4---4---4---4---4---4---3-|
A||-7---7-------7---7---7-------7---|-6---6-------6---3---3-------3---|
E||---------------------------------|---------------------------------|

e||---------------------------------|---------------------------------|
B||---------------------------------|---------------------------------|
G||---------4---------------4-------|---------4-----------4-------4---|
D||---4---4---4---4---4---4---4---4-|---4---4---4---4---4---4---4---4-|
A||-2---2-------2---0---0-------0---|-------------------------2-------|
E||---------------------------------|-3---3-------3---2---------------| x2


e||---------------------------------|----------------------------|
B||---------------------------------|----------------------------|
G||---------------------------------|----------------------------|
D||---------------------------------|----------------------------|
A||-7-----------6----3----2----0----|-----------------------6----|
E||---------------------------------|-0-2-3---3--5--7--5---------|

e||---------------------------------|
B||---------------------------------|
G||----------------------------2----|
D||----------------------------2----|
A||-7~----------6----3----2----0----|
E||---------------------------------| play A for the rest
pm  * * * * * * * * * * * * * *

1:41

e||---------------------------------|
B||-------------------------8-------|
G||-4--9-9----9-9----9-9----7---7---|
D||-4--9-9----9-9----9-9----5---7---|
A||-2--7-7----7-7----7-7--------5---|
E||---------------------------------|

1.Guitar
e||------------------------------|
B||----------------------8-------|
G||-9-9----9-9----9-9----7---7---|
D||-9-9----9-9----9-9----5---7---|
A||-7-7----7-7----7-7--------5---|
E||------------------------------|

2. Guitar
e||--------------------------------------------------------|
B||--------------------------------------------------------|
G||---------------------------------------7-9--------------|
D||-------------------------5-7-9-----7-9-----7h9p7-5-7----|
A||-7-----------5-7-----5-7-----------------------------5--|
E||----0--3-5-7------0-------------0-----------------------|

2:22

e||-------------|
B||-------------|
G||-5----4--4---|
D||-5----4--4---|
A||-3----2--2---|
E||-------------|


e||--------------------------------------------------------------------------|
B||--------------------------------------------------------------------------|
G||-9-9-9-9-9-9-9------------------------9-9-9-9-9-9-9---12-12-12------------|
D||-9-9-9-8-8-9-9--10-10-10-10-10-10-10--9-9-9-8-8-9-9---12-12-12--10-10-10--|
A||-7-7-7-7-7-7-7--10-10-10-9--9--10-10--7-7-7-7-7-7-7---10-10-10--10-10-10--|
E||----------------8--8--8--8--8--8--8-----------------------------8--8--8---| x6

e||------------------------------------------------------------|
B||------------------------------------------------------------|
G||-9--9-9--11--7--7-7--9-11-14--14-14--12-11-12--12-11-9-7-11-|
D||-9--9-9--11--7--7-7--9-11-14--14-14--12-11-12--12-11-9-7-11-|
A||-7--7-7--9---5--5-5--7-9--12--12-12--10-9--10--10-9--7-5-9--|
E||------------------------------------------------------------|

e||--------------------------------------------------------------|
B||--------------------------------------------------------------|
G||-9--9-9--11--7--7-7--9-11-12--12-12--14-16-14--16-17-16-14-12-|
D||-9--9-9--11--7--7-7--9-11-12--12-12--14-16-14--16-17-16-14-12-|
A||-7--7-7--9---5--5-5--7-9--10--10-10--12-14-12--14-15-14-12-10-|
E||--------------------------------------------------------------|

3:18

e||----------------------------|----------------------------|
B||-------------------8-8------|----------------------------|
G||-9-9-9-9-9-9---5-5-7-7-7-7--|-9-9-9-9-9-9---5-5-7-7------|
D||-9-9-8-8-9-9---5-5-5-5-7-7--|-9-9-8-8-9-9---5-5-7-7-7-7--|
A||-7-7-7-7-7-7---3-3-----5-5--|-7-7-7-7-7-7---3-3-5-5-7-7--|
E||----------------------------|-----------------------5-5--| x3

e||----------------------------|----------------------------|
B||-------------------8-8------|----------------------------|
G||-9-9-9-9-9-9---5-5-7-7-7-7--|-9-9-9-9-9-9---5------4--4--|
D||-9-9-8-8-9-9---5-5-5-5-7-7--|-9-9-8-8-9-9---5------4--4--|
A||-7-7-7-7-7-7---3-3-----5-5--|-7-7-7-7-7-7---3------2--2--|
E||----------------------------|----------------------------|

e||--------------------------------------------------------------------------|
B||--------------------------------------------------------------------------|
G||-9-9-9-9-9-9-9------------------------9-9-9-9-9-9-9---12-12-12------------|
D||-9-9-9-8-8-9-9--10-10-10-10-10-10-10--9-9-9-8-8-9-9---12-12-12--10-10-10--|
A||-7-7-7-7-7-7-7--10-10-10-9--9--10-10--7-7-7-7-7-7-7---10-10-10--10-10-10--|
E||----------------8--8--8--8--8--8--8-----------------------------8--8--8---| x4

4:10
Play A (haven't figured it out yet, sorry)

4:26
e||---------------------------------------------------------------------------------|
B||---------------------------------------------------------------------------------|
G||-----------------7-7-7-7-7-7-7-7-10-10-10-10-10-10-10-10-11-11-11-11-11-11-11-11-|
D||-7-7-7-7-7-7-7-7-7-7-7-7-7-7-7-7-10-10-10-10-10-10-10-10-11-11-11-11-11-11-11-11-|
A||-7-7-7-7-7-7-7-7-5-5-5-5-5-5-5-5-8--8--8--8--8--8--8--8--9--9--9--9--9--9--9--9--|
E||-5-5-5-5-5-5-5-5-----------------------------------------------------------------|

e||-------------------------------------------------------------------------|
B||-------------------------------------------------------------------------|
G||-----------------7-7-7-7-7-7-7-7-10-10-10-10-10-10-10-10-7---7-7-10-10-9-|
D||-7-7-7-7-7-7-7-7-7-7-7-7-7-7-7-7-10-10-10-10-10-10-10-10-7---7-7-10-10-9-|
A||-7-7-7-7-7-7-7-7-5-5-5-5-5-5-5-5-8--8--8--8--8--8--8--8--5---5-5-8--8--7-|
E||-5-5-5-5-5-5-5-5---------------------------------------------------------|

4:39
1.Guitar
e||---------------------------------------------------|
B||---------------------------------------------------|
G||-9--9----------9--9----------9--9----------9---7---|
D||-9--9----------9--9----------9--9----------9---7---|
A||-7--7----------7--7----------7--7----------7---5---|
E||-------0-0-0-0-------0-0-0-0-------0-0-0-0---------| x4
pm        * * * *       * * * *       * * * *

2.Guitar
e||---------------------------------------------------------|
B||-------------------------------------------7h8p7--5-7-7--|
G||-9--9----------9--9----------9--9------------------------|
D||-9--9----------9--9----------9--9------------------------|
A||-7--7----------7--7----------7--7------------------------|
E||-------0-0-0-0-------0-0-0-0-------0-0-0-0---------------| x2
pm        * * * *       * * * *       * * * *

5:06
e||--------------------------------------------------------|
B||--------------------------------------------------------|
G||---------------------------------------7-9--------------|
D||-------------------------5-7-9-----7-9-----7h9p7-5-7----|
A||-7-----------5-7-----5-7-----------------------------5--|
E||----0--3-5-7------0-------------0-----------------------| x4

End with
e||-----------------|
B||-----------------|
G||-5----4--4---9-9-|
D||-5----4--4---9-9-|
A||-3----2--2---7-7-|
E||-----------------|





Comments


Popular Kvelertak tabs & chords
Mjod Bass Tabs
Mjod 1 Bass Tabs
Apenbaring Intro Tabs
Kvelertak Intro Tabs
Mjd Tabs
Offernatt Tabs
Ordsmedar Av Rang Tabs
Sjohyenar Havets Herrer Tabs
Ultrydd Dei Svake Tabs
Ulvetid Tabs


Song lyrics



↑ Back to top | Tablatures and chords are parodies/interpretations of the original songs. You may use it for private study, scholarship, research or language learning purposes only
© 2014 AZChords.com Contact us | Privacy policy | DMCA | Add/correct tabs | Request tabs | Top 50 tabs