» » »

Kutless, Your Tough 4&5 String Bass tabs (ver.1)

Artists:  A B C D E F G H I J K L M N O P Q R S T U V W X Y Z # 

Your Tough 4&5 String Bass tabs (ver.1)

Kutless Tabs
 Rating:
4/5 (4 votes)
Your Tough 4&5 String lessons Tabs too difficult? Try these video lessons and learn fast
                Kutless: Your Touch
Bass Tabs:4 and 5 string
Justin Davis

* this means kinda pause
/ Slide up
This tab is not completely correct I know. This is the way I play it at church so if its wrong please tell me so I can fix it. It sounds good the way we play it at church so enjoy it.

4-string version: tuning drop-D

Intro and verse: Listen to song for timing
G/-----------
D/-----------
A/---1--3--1
D/5----------

Pre-Chorus: Listen for timing     2nd pre-chorus       These 5's sound kool on the second prechorus
/----------------------                /---------------------55555555
/----------------------                /---------------------------------
/----------------------                /---------------3333------------
/11111333335555555555     /1111133333------------------

Chorus: Listen for timing                   The end part of the chorus is weird listen to the song
/----------------------------------               to figure out what it is supposed to sound like.
/----------------------------------
/---------111111----------------  
/555555--------333333333*11

Bridge: Listen for timing- Pause at the first part of the bridge and then come in when u hear the
/----------------------------------------------                          bass part of the song kick in!
/----------------------------------------------
/--------------------5------------5-----------
/0000000000000–53500000--535000.....you get the way it goes
Part when he screams “Touch” listen for timin
/---------------------------------------------
/---------------------------------------------
/---------------------------------------------
/0-5-005/3-0-5-005/3-------------You get how it goes

I know this isn’t completely correct but it’s how I play it with my band at church so I hope you enjoy it. The 5-string version is below:











Kutless: Your Touch
5-String

Standard tuning

Intro&Verse:
G/----------------------------
D/----------------------------
A/-------1-----3-----1-------
E/3---------------------------
B/----------------------------

Pre-Chorus:
/------------------------------                  /----------------55555--------                      
/------------------------------                  /-------------------------------- 
/------------------------------                  /-----------3333---------------
/------111133333333------                 /-------1111-------------------- 	
/4444------------------------                  /4444--------------------------

Chorus:
/------------------------------
/------------------------------
/------1111------------------
/3333------111111---------
/---------------------*44-----
This bridge is a lot harder than the 4 string bridge
Bridge:
/------------------------------
/------------------------------
/--------------------5---------
/----------------------313
/4444444444444-------444.....And so on










The part where he screams “Touch!”
/------------------------------------------
/------------------------------------------
/------------------------------------------
/–3—3/1–3----3/1-----------------
/3–33----3--33----.....And so on you get it

This is not correct I’m sure but it the same and a 4-string you just don’t have 2 drop it. I hope these tabs help someone. Enjoy and God Bless our country in its time of need!!!!

             ><>JUSTIN<><
            
Submit corrections

comments powered by Disqus
↑ Back to top | Kutless Bass for Your Tough 4&5 String. Lyrics for acoustic guitar and electric guitar. Tablatures and chords are parodies/interpretations of the original songs. You may use it for private study, scholarship, research or language learning purposes only