» » »

Kutless, Your Touch 4&5 String Bass tabs (ver.1)

Artists:  A B C D E F G H I J K L M N O P Q R S T U V W X Y Z # 

Your Touch 4&5 String Bass tabs (ver.1)

Kutless Tabs
Rating:
0/5 (0 votes)
Your Touch 4&5 String lessons Tabs too difficult? Try these video lessons and learn fast
                Kutless: Your Touch
Bass Tabs:4 and 5 string
Justin Davis

* this means kinda pause
/ Slide up
This tab is not completely correct I know. 

4-string version: tuning drop-D

Intro and verse: Listen to song for timing
G/-----------
D/-----------
A/---1--3--1
D/5----------

Pre-Chorus: Listen for timing     
/----------------------                
/----------------------                
/----------------------                
/11111333335555555555     

Chorus: Listen for timing
/-------------------------------                  
/----------------------------------
/--------111111----------------  
/555555--------333333333*11

Bridge: BASS SOLO! Listen for timing
/--7-767-10--7-7-12-10--7-767-10--7-12-14-----
/-0---------0----------0---------0------------
/---------------------------------------------
/---------------------------------------------
Part when he screams “Touch” listen for timin
/---------------------------------------------
/---------------------------------------------
/---------------------------------------------
/0-3/5-005/3-0-3/5-005/3-------------You get how it goes




Kutless: Your Touch
5-String

Standard tuning

Intro&Verse:
G/----------------------------
D/----------------------------
A/-------1-----3-----1-------
E/3---------------------------
B/----------------------------

Pre-Chorus:
/------------------------------                                       
/------------------------------                   
/------------------------------                  
/------111133333333------                       	
/4444------------------------                  

Chorus:
/------------------------------
/------------------------------
/-----1111---------------------
/3333------1111----------------
/---------------*44------------

Bridge: BASS SOLO
/--7-767-10---7-10-12---7-767-10--7-12-14-
/0----------0---------0---------0---------
/-----------------------------------------
/-----------------------------------------
/-----------------------------------------


The part where he screams “Touch!”
/------------------------------------------
/------------------------------------------
/------------------------------------------
/–3—3/1–3----3/1-----------------
/3–33----3--33----.....And so on you get it


             ><>JUSTIN<><
            
Submit corrections

comments powered by Disqus
↑ Back to top | Kutless Bass for Your Touch 4&5 String. Lyrics for acoustic guitar and electric guitar. Tablatures and chords are parodies/interpretations of the original songs. You may use it for private study, scholarship, research or language learning purposes only