» » »

Kutless, Winds Of Change Bass tabs (ver.1)

Artists:  A B C D E F G H I J K L M N O P Q R S T U V W X Y Z # 

Winds Of Change Bass tabs (ver.1)

Kutless Tabs
 Rating:
4/5 (4 votes)
Winds Of Change lessons Tabs too difficult? Try these video lessons and learn fast
                
Tuning: Drop Db (Db,Ab,Db,Gb)

Intro 0:00-0:10
No Bass

Verse 1 0:11-0:50
Gb---------------------------------------------------------------------I
Db---------------------------------------------------------------------I
Ab-1-1-1-1-1-1-1-1-----------------3-3-3-3-3-3-3-3-3-3-3-3-3-3-3-3-3-3-I 3x
Db-----------------3-3-3-3-3-3-3-3-------------------------------------I

Gb-----------------------------------------------------------------I
Db-----------------------------------------------------------------I
Ab-1-1-1-1-1-1-1-1-------------------------------------------------I
Db-----------------3-3-3-3-3-3-3-3-5-5-5-5-5-5-5-5-1-1-1-1-1-1-1-1-I

Chorus 0:51-1:11
Gb--------------------------------------------------------------I
Db--------------------------------------------------------------I
Ab---------------1-1-1---1-1--------------------3-3-3-3-3-3-3-3-I  2x
Db-5-5-5---5-5------------------3-3-3-3-3-3-3-3-----------------I

Pre-Verse 1:12-1:21
No Bass

Verse 2 1:22-2:01
Gb--------------------------------------------------------------------I
Db--------------------------------------------------------------------I
Ab-1-1-1-1-1-1-1-1------------------3-3-3-3-3-3-3-3-3-3-3-3-3-3-3-3-3-I 3x
Db-----------------3-3-3-3-3-3-3-3------------------------------------I

Gb-------------------------------------------------------------------I
Db-------------------------------------------------------------------I
Ab-1-1-1-1-1-1-1-1---------------------------------------------------I
Db-----------------3-3-3-3-3-3-3-3-5-5-5-5-5-5-5-5-5-1-1-1-1-1-1-1-1-I

Chorus 2 2:02-2:42
Gb-------------------------------------------------------------I
Db-------------------------------------------------------------I
Ab---------------1-1-1---1-1-------------------3-3-3-3-3-3-3-3-I 4x
Db-5-5-5---5-5-----------------3-3-3-3-3-3-3-3-----------------I

Bridge 2:43-3:12
Gb---------------------------------------------------I
Db---------------------------------------------------I
Ab----------------------------------333-333--333-333-I 3x
Db-0-0-0-0-0-0-0-0-3-3-3-3-3-3-3-3-------------------I

Post-Chorus 3:13-3:21
No Bass

Chorus 3 3:22-3:52
Gb-------------------------------------------------------I
Db-------------------------------------------------------I
Ab---------1-1-1---1-1-------------------3-3-3-3-3-3-3-3-I
Db-5-5-5---------------3-3-3-3-3-3-3-3-3-----------------I

Final Chorus/Ending 3:53-4:18
Gb------------------------------I
Db------------------------------I
Ab---------1(16x)---------3(16)-I
Db-5(16x)---------3(16x)--------I

Gb-------------------------------------I
Db-------------------------------------I
Ab---------1(16x)---------333-333-3333-I
Db-5(16x)----------3(16x)--------------I

End
            
Submit corrections

comments powered by Disqus
↑ Back to top | Kutless Bass for Winds Of Change. Lyrics for acoustic guitar and electric guitar. Tablatures and chords are parodies/interpretations of the original songs. You may use it for private study, scholarship, research or language learning purposes only