» » »

Kutless, Treason Bass tabs (ver.1)

Artists:  A B C D E F G H I J K L M N O P Q R S T U V W X Y Z # 

Treason Bass tabs (ver.1)

Kutless Tabs
 Rating:
4/5 (4 votes)
Treason lessons Tabs too difficult? Try these video lessons and learn fast
1
                Treason
Kutless
Sea of Faces

intro:
Gb[-------2-------2-------2---------------2-]
Db[-----------------------------------------]
Ab[-----------------------------------------]
Db[-0-4-44--0-4-44--0-4-44--0-4-44-2424-44--] repeat

verse 1
Gb[-------------------2-------2-------2-----------|
Db[-----------------------------------------------|
Ab[-2-----0---------------------------------------|
Db[-------------0-4-44--0-4-44--0-4-44--0-4-44-242|
It all starts here with my disgrace I give You my life then I run in haste In this false 
something needs to give

chorus:
Gb[----------------------22--22---------------------------22--22-------]
Db[--------------------------------------------------------------------]
Ab[-------00000------------22--------------00000------------22---------]
Db[-44444-------0-0000-00------22004244444-------0-0000-00------220042-]
Tell me a reason why this isn't treason Tell me, tell me I'm wrong
I swear I'm back but then it turns out it's only a season So tell me, tell me I’m wrong

---REPEAT INTRO
---REPEAT CHORUS

With my two lips I will praise Your name Then I turn around and only curse and blame I 
in strength is thin adding to my shame

---REPEAT CHORUS



bridge:
Gb[----------------------------------------------------------------]
Db[----------------------------------------------------------------]
Ab[------------------0-000---------------------0-000---------------]
Db[-4-454-4-454-4-454-----222-4-454-4-454-4-454-----00020----0-----]
Your blood it covered all of my SINS You changed a traitor into KIN In this false life 
needs to give
            
Submit corrections

comments powered by Disqus
↑ Back to top | Kutless Bass for Treason. Lyrics for acoustic guitar and electric guitar. 1 Tablatures and chords are parodies/interpretations of the original songs. You may use it for private study, scholarship, research or language learning purposes only