» » »

To Know That Youre Alive Bass tabs (ver.2)

Artists:  A B C D E F G H I J K L M N O P Q R S T U V W X Y Z # 

To Know That Youre Alive Bass tabs (ver.2)

Kutless
Rating:
0/5 (0 votes)

Hard to play? Try these video lessons and learn fast.
                To Know That You're Alive
Kutless

Intro/verse
G|--------------------------------------| x2
D|--------------------------------------|
A|-3---3---3---3----2---2----555555h6p5-|
D|--------------------------------------|

Pre Chorus 1
G|-----------------------|
D|-----------------------|
A|---9~9~----9~9~----xxxx|
D|-0-----0-0-----0-0-----|x4

Chorus 1
G|------------------------------------| x2
D|------------------------------------|
A|-3333334666666666-11111111----------|
D|---------------------------55555555-|

Verse 2 same as verse 1


Pre Chorus 2 same

Chorus 2 same

Bridge
G|-----------------------------------| x2
D|-----------------------------------|
A|-----------------------------------|
D|-0-000-0-0-000-0-0-000-0-3-0-3-5b6-|

G|---------------------------------| x4
D|---------------------------------|
A|----------------------9-11-12~~~-|
D|-0-xx-0-0-xx-0-0-xx-0------------|

Chorus 3 same

Ending same as second part of bridge
|-----------------|
|-----------------|
|-----------------|
|-0-xx-0-0-xx-0-0-|

hope you like it is a very good song any suggestions send me a message, if its hate mail 
send it
            
Hard to play? Try these video lessons and learn fast. | Correct




comments powered by Disqus
↑ Back to top | Tablatures and chords are parodies/interpretations of the original songs. You may use it for private study, scholarship, research or language learning purposes only