» » »

Kutless, The Feeling Bass tabs (ver.1)

Artists:  A B C D E F G H I J K L M N O P Q R S T U V W X Y Z # 

The Feeling Bass tabs (ver.1)

Kutless Tabs
 Rating:
4/5 (4 votes)
The Feeling lessons Tabs too difficult? Try these video lessons and learn fast
                The Feeling
Bassist: Dave Lucky
I listening real hard a is sounds like a jazz bass or a music amn bass
so use one of those you'll be fine.
Dropped D or Dropped C# whatever you prefer. 


Intro/verse 1:
G|----------------------------------------------------------------|
D|--3p0--------------------3p0------------------------------------|
A|--------3p0--------------------3p0------------------------------|
D|--------------3---0--0---------------3---0--0-------------------|

G|----------------------------------------------------------------|
D|--3p0--------------------3p0------------------------------------|
A|--------3p0--------------------3p0------------------------------|
D|--------------3---5--5---------------3---5--5-----------0--3----|

Verse 1:
G|----------------------------------------------------------------|
D|---------3p0--------------------3p0-----------------------------|
A|---------------3p0--------------------3p0-----------------------|
D|--0------------------3---0--0---------------3---5--5------------|


G|----------------------------------------------------------------|
D|--3p0--------------------------------------------3p0------------|
A|--------3p0--------------------------------------------3p0------|
D|--------------3---5--5-------5---0---3----0------------------3--|

G|----------------------------------------------------------------|
D|---------3p0--------------------3p0-----------------------------|
A|---------------3p0--------------------3p0-----------------------|
D|--0--0---------------3---5--5---------------3---5--5---5-5-5--7-|

Chorus: Play two times    
G|-------------------------------------------|     
D|-------------------------------------------|     
A|---------------------------3--3-3-3-3-3-3-3|     
D|--0---0--0--0--0--0--0--0------------------|     
                                                                       
G|----------------------------------------------------------|     
D|----------------------------------------------------------|     
A|--1---1--1--1--1--1--1--1--1--1--1--1--1--1--1--1---------|   
D|----------------------------------------------------------|     
                                                                        
G|----------------------------------------------------------|     
D|----------------------------------------0-----------------|     
A|--3---3--3--3--3--3--3--3--3------------------1---1-------|     
D|----------------------------------------------------------|     
                                                                        
G|----------------------------------------------------------|     
D|----------------------------------------------------------|     
A|----------------------------------------------------------|   
D|--5---5----3--3----5--5----3--3----5--5----3--3----5-/7p0-|     
                                                             

Play verse 1 again

At end of 2nd verse
G|-----------------|
D|-----------------|
A|---------------0-|
D|-5--5---5-5-5----|

PLay Chorus again
                                                             

Bridge:
G|----------------------------------------------------------------|
D|--0-00-00-00-00--2-22-22-22-22-----------------0-00-00-00-00----|
A|--------------------------------3-33-33-33-33--5-55-55-55-55----|
D|----------------------------------------------------------------|

G|----------------------------------------------------------------|
D|--0-00-00-00-00--2-22-22-22-22--------------------3--2-0-0------|
A|--------------------------------3-33-33-33-33---------------3---|
D|-----------------------------------------------0----------------|
            
Submit corrections

comments powered by Disqus
↑ Back to top | Kutless Bass for The Feeling. Lyrics for acoustic guitar and electric guitar. Tablatures and chords are parodies/interpretations of the original songs. You may use it for private study, scholarship, research or language learning purposes only