>
 >
The Feeling

The Feeling Guitar Tabs

Kutless - The Feeling chords, tabs, tablatures, lyrics

Guitar lessons | Add/correct | Request | Top 50 tabs Artists:  A B C D E F G H I J K L M N O P Q R S T U V W X Y Z 0-9

The Feeling Guitar Tabs – Kutless

CD, Sheet music, Poster

Do you like The Feeling? Share with your friends now
Bass TabsTabsTabs v2
ok whoever tabbed these other two versions are morons cuz some of that stuff
wasnt even close.  i just copied the stuff that was right 

Intro/verse 1:
Eb|----------------------------------------------------------------|
Bb|----------------------------------------------------------------|
Gb|----------------------------------------------------------------|
Db|--3p0-------------0--0---3p0-------------0--0-------------------|
Ab|--------3p0-------0--0---------3p0-------0--0-------------------|
Db|--------------3---0--0---------------3---0--0-------------------|

Eb|----------------------------------------------------------------|
Bb|----------------------------------------------------------------|
Gb|----------------------------------------------------------------|
Db|--3p0-------------5--5---3p0-------------5--5-------5-----------|
Ab|--------3p0-------5--5---------3p0-------5--5-------5---x-------|
Db|--------------3---5--5---------------3---5--5-------5---x--3v---|

Verse 1:
Eb|----------------------------------------------------------------|
Bb|----------------------------------------------------------------|
Gb|----------------------------------------------------------------|
Db|--0------3p0-------------0--0---3p0-------------5--5------------|
Ab|--0------------3p0-------0--0---------3p0-------5--5------------|
Db|--0------------------3---0--0---------------3---5--5------------|

Eb|----------------------------------------------------------------|
Bb|----------------------------------------------------------------|
Gb|----------------------------------------------------------------|
Db|--3p0-------------5--5-------5------------0------3p0------------|
Ab|--------3p0-------5--5-------5---x--------0------------3p0------|
Db|--------------3---5--5-------5---x--3v----0------------------3--|

Eb|----------------------------------------------------------------|
Bb|----------------------------------------------------------------|
Gb|----------------------------------------------------------------|
Db|--0--0---3p0-------------5--5---3p0-------------5--5---5-5-5--7-|
Ab|--0--0---------3p0-------5--5---------3p0-------5--5---5-5-5--7-|
Db|--0--0---------------3---5--5---------------3---5--5---5-5-5--7-|

Chorus:                                                      ------|
Eb|----------------------------------------------------------|     |
Bb|----------------------------------------------------------|     |
Gb|---------------------------5-----3-----5------7-----------|     |
Db|--0---0--0--0--0--0--0--0--5-*8--3-*8--5--*4--7--3-5--------|     |
Ab|--0---0--0--0--0--0--0--0--3-----1-----3------5--3-5--------|     |
Db|--0---0--0--0--0--0--0--0------------------------3-5--|     |
  guitar II                                                                 |play
Eb|----------------------------------------------------------------|
Bb|----------------------------------------------------------------|
Gb|----------------------------------------------------------------|
Db|--3p0-3p0-3p0-----------0--0-------------------------------------|
Ab|--------------3p0-------0--0-------------------------------------|
Db|--------------------3---0--0---------------------------------------|
------|

Bridge:
Eb|----------------------------------------------------------------|
Bb|----------------------------------------------------------------|
Gb|--7-77-77-77-77--9-99-99-99-99--5-55-55-55-55--7-77-77-77-77----|
Db|--x-xx-xx-xx-xx--x-xx-xx-xx-xx--x-xx-xx-xx-xx--x-xx-xx-xx-xx----|
Ab|--5-55-55-55-55--7-77-77-77-77--3-33-33-33-33--5-55-55-55-55----|
Db|----------------------------------------------------------------|
guitar II-strum he same as lead
Eb|----------------------------------------------------------------|
Bb|----------------------------------------------------------------|
Gb|--3--------------5--------------2-------------------------------|
Db|--3--------------5--------------2-------------------------------|*2
Ab|--1--------------3--------------0-------------------------------|
Db|----------------------------------------10s0--------------------|

Eb|----------------------------------------------------------------|
Bb|----------------------------------------------------------------|
Gb|--7-77-77-77-77--9-99-99-99-99--5-55-55-55-55--7---5------------ x2
Db|--x-xx-xx-xx-xx--x-xx-xx-xx-xx--x-xx-xx-xx-xx--x---x------------
Ab|--5-55-55-55-55--7-77-77-77-77--3-33-33-33-33--5---3------------

Eb|----------------------------------------------------------------|
Bb|----------------------------------------------------------------|
Gb|-----14---12--10-10-9-------------------------------------------|
Db|------x---x---x--x--x-------------------------------------------|
Ab|-00--12---10--8--8--7-------------------------------------------|
Db|-00----00---00--------------------------------------------------|

Outro: Guitar 1
Eb|----------------------------------------------------------------|
Bb|----------------------------------------------------------------|
Gb|--10101010\---101010-12-1212-12\---121212-14-1414-14\-----------|
Db|--x-x-x-x-----x-x-x---x--x-x--x-----x-x-x--x--x-x--x------------|
Ab|--8-8-8-8-\---8-8-8--10-1010-10\---101010-12-1212-12\-----------|
Db|----------------------------------------------------------------|

Outro: Guitar 2
Eb|----------------------------------------------------------------|
Bb|----------------------------------------------------------------|
Gb|----------------------------------------------------------------|
Db|----------------------------------------------------------------|
Ab|----------------------------------------------------------------|
Db|-----12\-0-0-0-121212-0-0-0-12\-0-0-0-121212-0-0-0-12\----------|

Guitar 1
Eb|----------------------------------------------------------------|
Bb|----------------------------------------------------------------|
Gb|--141414-13-1313-13\--------------------------------------------|
Db|---x-x-x--x--x-x--x---------------------------------------------|
Ab|--121212-11-1111-11\------5\------------------------------------|
Db|--------------------------5\------------------------------------|

GUitar 2:
Eb|----------------------------------------------------------------|
Bb|----------------------------------------------------------------|
Gb|----------------------------------------------------------------|
Db|----------------------------------------------------------------|
Ab|----------------------------------------------------------------|
Db|--0-0-0-121212-0-0-0--------------------------------------------|

Guitar 1
Eb|----------------------------------------------------------------|
Bb|----------------------------------------------------------------|
Gb|--10101010\---101010-12-1212-12\---121212-14-1414-14\-----------|
Db|--x-x-x-x-----x-x-x---x--x-x--x-----x-x-x--x--x-x--x------------|
Ab|--8-8-8-8-\---8-8-8--10-1010-10\---101010-12-1212-12\-----------|
Db|----------------------------------------------------------------|

Guitar 2:
Eb|----------------------------------------------------------------|
Bb|----------------------------------------------------------------|
Gb|----------------------------------------------------------------|
Db|----------------------------------------------------------------|
Ab|----------------------------------------------------------------|
Db|-----12\-0-0-0-121212-0-0-0-12\-0-0-0-121212-0-0-0-12\----------|

Guutar 1
Eb|----------------------------------------------------------------|
Bb|----------------------------------------------------------------|
Gb|--141414--------------------------------------------------------|
Db|---x-x-x--------------------------------------------------------|
Ab|--121212--------------------------------------------------------|
Db|----------------------------------------------------------------|

Guitar 2:
Eb|----------------------------------------------------------------|
Bb|----------------------------------------------------------------|
Gb|----------------------------------------------------------------|
Db|----------------------------------------------------------------|
Ab|----------------------------------------------------------------|
Db|--0-0-0-121212-0-0-0--12\-10-h12----0--0------------------------|

Outro: Guitar 3 (Studio fill in)
Eb|----------------------------------------------------------------|
Bb|---------15b-----15b--------------------------------------------|
Gb|----------------------------------------------------------------|
Db|----------------------------------------------------------------|
Ab|----------------------------------------------------------------|
Db|----------------------------------------------------------------|

Eb|----------------------------------------------------------------|
Bb|----------------------------------------------------------------|
Gb|----------------------------------------------------------------|
Db|-0--0-------------------------------------------------------------|
Ab|-0--0-------------------------------------------------------------|
Db|-0--0-------------------------------------------------------------|





Comments


Popular Kutless tabs & chords
Amazed 4 Chords
Identity Chords
Promise Of A Lifetime 1 Chords
This Is Love Chords
Winds Of Change Chords
New Years Vow Intro Tabs
Saved 2 Tabs
Shut Me Out 1 Tabs
We Fall Down Tabs
Strong Tower Ukulele


Song lyrics



↑ Back to top | Tablatures and chords are parodies/interpretations of the original songs. You may use it for private study, scholarship, research or language learning purposes only
© 2014 AZChords.com Contact us | Privacy policy | DMCA | Add/correct tabs | Request tabs | Top 50 tabs