» » »

Take Me In Bass tabs (ver.1)

Artists:  A B C D E F G H I J K L M N O P Q R S T U V W X Y Z # 

Take Me In Bass tabs (ver.1)

Kutless
Rating:
0/5 (0 votes)

Hard to play? Try these video lessons and learn fast.
                ----------------------------------------------------------------------------
			    Take me in - Kutless
----------------------------------------------------------------------------



Tuning: Standard

    Start after it plays through twice

    (x2)
  We'll call this (A) it plays (2x)
G|---------------------------------------------------------------------------|
D|---------------------------------------------------------------------------|
A|9----5----7----5-5-5-5-5h7-7-7-7-------------------------------------------|
E|---------------------------------------------------------------------------|

    (x2)
  We'll call this (B) it plays (2x)
G|---------------------------------------------------------------------------|
D|---------------------------------------------------------------------------|
A|9-9-9-9-9-9-9-9-7-7-7-7-7-7-7-7-5-5-5-5-7-7-7-7-9-9-9-9-9-9-9-9------------|
E|---------------------------------------------------------------------------|
    (A)  (2x)
G|---------------------------------------------------------------------------|
D|---------------------------------------------------------------------------|
A|---------------------------------------------------------------------------|
E|---------------------------------------------------------------------------|
    (B)  (2x)
G|---------------------------------------------------------------------------|
D|---------------------------------------------------------------------------|
A|---------------------------------------------------------------------------|
E|---------------------------------------------------------------------------|
     Sit this one out (2x)
G|---------------------------------------------------------------------------|
D|---------------------------------------------------------------------------|
A|---------------------------------------------------------------------------|
E|---------------------------------------------------------------------------|
    (A)  (2x)
G|---------------------------------------------------------------------------|
D|---------------------------------------------------------------------------|
A|---------------------------------------------------------------------------|
E|---------------------------------------------------------------------------|
    (B)  (3x)
G|---------------------------------------------------------------------------|
D|---------------------------------------------------------------------------|
A|---------------------------------------------------------------------------|
E|---------------------------------------------------------------------------|
   This one's a little different at the end. It play's(1)
G|---------------------------------------------------------------------------|
D|---------------------------------------------------------------------------|
A|9-9-9-9-9-9-9-9-7-7-7-7-7-7-7-7-5-5-5-5-7-7-7-7-(5-5-5-5-5-5-5-5)----------|
E|---------------------------------------------------------------------------|
   finish with this (1x)
G|-----------------------------------------------------------------------------|
D|-----------------------------------------------------------------------------|
A|5----7----9------------------------------------------------------------------|
E|-----------------------------------------------------------------------------|


| /  slide up
| \  slide down
| h  hammer-on
| p  pull-off
| ~  vibrato
| +  harmonic
| x  Mute note
===============================================================================
            
Hard to play? Try these video lessons and learn fast. | Correct




comments powered by Disqus
↑ Back to top | Tablatures and chords are parodies/interpretations of the original songs. You may use it for private study, scholarship, research or language learning purposes only