» » »

Run Bass tabs (ver.1)

Artists:  A B C D E F G H I J K L M N O P Q R S T U V W X Y Z # 

Run Bass tabs (ver.1)

Kutless
Rating:
0/5 (0 votes)

Hard to play? Try these video lessons and learn fast.
                ---------------


   (0:18)              3X     (0:57)
G|-------------------------|------------------------------|
D|---------7-5-------------|----------7-5-----------------|
A|---3-5--5----------3-5---|----3-5--5----------3-5--5-5--|
E|-0--------------0--------|--0--------------0------------|
B|----------------------3--|------------------------------|


   (1:10)
G|---------------------------------|
D|-------------5\------------------|
A|-3-3----5--5-------3-3----5--5-5-|
E|----5-3---------------5-3--------|
B|---------------------------------|

   (1:22)
G|---------------------------------|
D|-------------5\------------------|
A|-3-3----5--5-------3-3----5:-----|
E|----5-3---------------5-3--------|
B|---------------------------------|


   (1:35)              3X     (2:14)
G|-------------------------|------------------------------|
D|---------7-5-------------|----------7-5-----------------|
A|---3-5--5----------3-5---|----3-5--5----------3-5--5-5--|
E|-0--------------0--------|--0--------------0------------|
B|----------------------3--|------------------------------|


   (2:27)
G|---------------------------------|
D|-------------5\------------------|
A|-3-3----5--5-------3-3----5--5-5-|
E|----5-3---------------5-3--------|
B|---------------------------------|

   (2:40)
G|---------------------------------|
D|-------------5\------------------|
A|-3-3----5--5-------3-3----5:-----|
E|----5-3---------------5-3--------|
B|---------------------------------|


   (2:53)
G|---------------------------------|
D|---------------------------------|
A|--------3-------------5----------|
E|--5\-0----3----5\-0--------------|
B|---------------------------------|

   (3:06)                         2X
G|------------------------------------|
D|----------------------------------7-|
A|--------2--0-2-3--3-0-2--------5----|
E|-5--3-5------------------5--0-------|
B|------------------------------------|


   (3:32)                      2X
G|---------------------------------|
D|-------------5\------------------|
A|-3-3----5--5-------3-3----5:-----|
E|----5-3---------------5-3--------|
B|---------------------------------|


   (3:59)      2X    (4:11)          
G|-----------------|-------------------|
D|-------------5\--|-----------7---5\--|
A|-3-3----5--5-----|--3-3----5---5-----|
E|----5-3----------|-----5-3-----------|
B|-----------------|-------------------|


   (4:18)      3X    (4:38)          
G|-----------------|-------------|
D|-------------5\--|-------------|
A|-3-3----5--5-----|--3-------5--|
E|----5-3----------|-----3-3\----|
B|-----------------|-------------|
            
Hard to play? Try these video lessons and learn fast. | Correct




comments powered by Disqus
↑ Back to top | Tablatures and chords are parodies/interpretations of the original songs. You may use it for private study, scholarship, research or language learning purposes only