» » »

Kutless, Promise Of A Lifetime Bass tabs (ver.1)

Artists:  A B C D E F G H I J K L M N O P Q R S T U V W X Y Z # 

Promise Of A Lifetime Bass tabs (ver.1)

Kutless Tabs
 Rating:
4/5 (4 votes)
Promise Of A Lifetime lessons Tabs too difficult? Try these video lessons and learn fast
                Promise of a lifetime - Kutless	


Verse 1
G|-------------------------------------------------------------------------------|
D|-------------------------------------------------------------------------------|
A|-----------------5-------------------------------5---------------5-------------|
E|-2-------0---------------5---0---2-------0---------------5---0-----------0-----|

Chorus
G|-------------------------------------------------------------------------------|
D|----------------------------------------------------------------2--------------|
A|-----------------2222222455555557----------------222222245555555---------------|
E|-5555555500000000----------------5555555500000000------------------------------|

Pre verse bit
G|---------------------------------------|
D|---------------------------------------|
A|-------------------5---55--5-----------|
E|-2---22--20---00--0---------5555h70000-|

Verse 2 (basically just a different rhythm to verse 1)
G|-----------------------------------------------------------------------------|
D|-----------------------------------------------------------------------------|
A|-------------------5---55-5h7----------------------------5---55-5h7----------|
E|-2---22--20---00--0----------5555h700002---22--20---00--0----------5555h70000|

G|-----------------|
D|-----------------|
A|55555555---------|
E|--------00004045-|

Bridge
G|-------------------------------------------------------------------------------|
D|-------------------------------------------------------------------------------|
A|-2222222255555555----------------2222222255555555--------2-(let ring)----------|
E|-----------------555555550000000-----------------55555555----------------------|

Finish on 
G|----|
D|----|
A|----|
E|-5--|

Order:
Piano intro
Verse 1
Chorus
Pre verse bit
Verse 2
Chorus
Bridge
Chorus (guitar + piano)
Chorus

(h=hammer on)
            
Submit corrections

comments powered by Disqus
↑ Back to top | Kutless Bass for Promise Of A Lifetime. Lyrics for acoustic guitar and electric guitar. Tablatures and chords are parodies/interpretations of the original songs. You may use it for private study, scholarship, research or language learning purposes only