» » »

Pride Away Tabs (ver.1)

Artists:  A B C D E F G H I J K L M N O P Q R S T U V W X Y Z # 

Pride Away Tabs (ver.1)

Kutless
Rating:
0/5 (0 votes)

Hard to play? Try these video lessons and learn fast.
                Key:
| /  slide up
| \  slide down
| .  palm mute
Tuning: drop-D

riff 1 gtr.1
e|-----------------------------|
B|-----------------------------|
G|-----------------------------|
D|-7---5--5---3-0-0-3-0-0-3-0--|
A|-5---3--5---3-0-0-3-0-0-3-0--|
D|-0------5---3-0-0-3-0-0-3-0--|
                . .   . .   .

riff 2 gtr.1
e|-----------------------------------------------------------------|
B|-----------------------------------------------------------------|
G|-----------------------------------------------------------------|
D|-7-7-7-7-7-7-7-7-3-3-3-3-3-3-3-3-5-5-5-5-5-5-5-5-5-5-5-5-5-5-5-5-|
A|-7-7-7-7-7-7-7-7-3-3-3-3-3-3-3-3-5-5-5-5-5-5-5-5-5-5-5-5-5-5-5-5-|
D|-7-7-7-7-7-7-7-7-3-3-3-3-3-3-3-3-5-5-5-5-5-5-5-5-5-5-5-5-5-5-5-5-|

gtr.2
e|-----------------------------------------------------------------|
B|-----------------------------------------------------------------|
G|---------7/9-9-9---------7/9-9-9---------7/9-9-9-----------------|
D|---------x/x-x-x---------x/x-x-x---------x/x-x-x-----------------|
A|---------5/7-7-7---------5/7-7-7---------5/7-7-7-----------------|
D|-----------------------------------------------------------------|

cont. gtr.1
e|-------------------------------------------------|
B|-------------------------------------------------|
G|-------------------------------------------------|
D|-7-7-7-7-7-7-7-7-3-3-3-3-3-3-3-3-5-5-5-5-5-5-5-5-|
A|-7-7-7-7-7-7-7-7-3-3-3-3-3-3-3-3-5-5-5-5-5-5-5-5-|
D|-7-7-7-7-7-7-7-7-3-3-3-3-3-3-3-3-5-5-5-5-5-5-5-5-|

gtr.2
e|-------------------------------------------------|
B|-------------------------------------------------|
G|---------7/9-9-9---------7/9-9-9-----------------|
D|---------x/x-x-x---------x/x-x-x-----------------|
A|---------5/7-7-7---------5/7-7-7-----------------|
D|-------------------------------------------------|

riff 3 gtr.1
e|--------------------------------------------|
B|--------------------------------------------|
G|--------------------------------------------|
D|------10-9--5-------------10-9--14-12--10-9-|
A|---0-----------7-8-7---0--------------------|
D|-7-------------------7----------------------|

gtr.2
e|--------------------------------------------|
B|--------------------------------------------|
G|--------------------------------------------|
D|-7----5-----3--5-----7----5-----3------5----|
A|-7----5-----3--5-----7----5-----3------5----|
D|-7----5-----3--5-----7----5-----3------5----|

riff 4 gtr.1
e|-----------------------------------|
B|-----------------------------------|
G|-----------------------------------|
D|-14-12-----------------------------|
A|--------7-8-7-5--------------------|
D|-----------------------------------|

gtr.2
e|-----------------------------------|
B|-----------------------------------|
G|-----------------------------------|
D|-7------5-----5---3-0-0-3-0-0-3-0--|
A|-5------3-----5---3-0-0-3-0-0-3-0--|
D|-0------------5---3-0-0-3-0-0-3-0--|
                      . .   . .   .
riff 5 gtr. 1
e|---------------------------------------------|
B|---------------------------------------------|
G|---------------------------------------------|
D|------10-9--5--------------10-9--14-12--10-9-|
A|---0------------7-8-7---0--------------------|
D|-7--------------------7----------------------|

gtr.2
e|----------------------------------------------|
B|----------------------------------------------|
G|----------------------------------------------|
D|---7------5---3-----5---7------5---3--------5-|
A|--7-----5----3----5----7-----5----3-------5---|
D|-7----5-----3---5-----7----5-----3------5-----|

riff 6 gtr.2                                        ending 1
e|-------------------------------------------------|-----------------|
B|-------------------------------------------------|-----------------|
G|-------------------------------------------------|-----------------|
D|---7-----------------5-------------3-------------|-----5-----------|
A|--7----------------5--------------3--------------|---5-------------|
D|-7---------------5---------------3---------------|-5---------------|

gtr. 1                                                
e|-------------------------------------------------|-----------------|
B|-------------------------------------------------|-----------------|
G|-------------------------------------------------|-----------------|
D|-7-7-7-7-7-7-7-7-5-5-5-5-5-5-5-5-3-3-3-3-3-3-3-3-|-5-5-5-5-5-5-5-5-|
A|-7-7-7-7-7-7-7-7-5-5-5-5-5-5-5-5-3-3-3-3-3-3-3-3-|-5-5-5-5-5-5-5-5-|
D|-7-7-7-7-7-7-7-7-5-5-5-5-5-5-5-5-3-3-3-3-3-3-3-3-|-5-5-5-5-5-5-5-5-|
   . . . . . . . . . . . . . . . . . . . . . . . .   . . . . . . . .

ending 2
e|-----------------|
B|-----------------|
G|-----------------|
D|-7-7-5-5-3-3-5-5-|
A|-7-7-5-5-3-3-5-5-|
D|-7-7-5-5-3-3-5-5-|

riff 7 gtr.2
e|-------------------------------------------------------|
B|-10-10--11-11--10-10--9--9---10-10--11-11--10-10-4-4-4-|
G|-------------------------------------------------------|
D|-------------------------------------------------------|
A|-------------------------------------------------------|
D|-------------------------------------------------------|

gtr.1
e|-------------------------------------------------------|
B|-------------------------------------------------------|
G|-------------------------------------------------------|
D|-7--7---8--8---7--7---5--5---7--7---8--8---7--7--1-1-1-|
A|-7--7---8--8---7--7---5--5---7--7---8--8---7--7--1-1-1-|
D|-7--7---8--8---7--7---5--5---7--7---8--8---7--7--1-1-1-|
   .  .   .  .   .  .   .  .   .  .   .  .   .  .  

 
e|-------|
B|-------|
G|-------|
D|-1-1-1-|
A|-1-1-1-|
D|-1-1-1-|

Intro:
riff 1 x2
Chorus:
riff 2 
Verse 1:
riff 3
riff 4 x2
Chorus:
riff 2
Verse 2:
riff 5 
riff 6x2 
Bridge:
riff 2
riff 7 x2
Chorus:
riff 2 
Outro:
riff 7 x2
riff 8

Thats all for now folks!!!!!!!!!!!!!!
            
Hard to play? Try these video lessons and learn fast. | Correct




comments powered by Disqus
↑ Back to top | Tablatures and chords are parodies/interpretations of the original songs. You may use it for private study, scholarship, research or language learning purposes only