» » »

Kutless, Not What You See Tabs (ver.1)

Artists:  A B C D E F G H I J K L M N O P Q R S T U V W X Y Z # 

Not What You See Tabs (ver.1)

Kutless Tabs
 Rating:
4/5 (4 votes)
Not What You See lessons Tabs too difficult? Try these video lessons and learn fast
                Tunning: Drop-Db

Riff 1
eb|------------------------------------------------------------------------|
Bb|------------------------------------------------------------------------|
Gb|------------------------------------------------------------------------|
Db|-2-2-0-2-2-0-10-10-10-10-10/12-12-12-0-2-2-0-2-2-0-10-10-10-0-7-7-7-7-7-|
Ab|-2-2-0-2-2-0-10-10-10-10-10/12-12-12-0-2-2-0-2-2-0-10-10-10-0-7-7-7-7-7-|
Db|-2-2-0-2-2-0-10-10-10-10-10/12-12-12-0-2-2-0-2-2-0-10-10-10-0-7-7-7-7-7-|

Riff 2
eb|--------------------------------------------|
Bb|--------------------------------------------|
Gb|--------------------------------------------|
Db|-9x-9x-9x-99x-99x-9x-----12-12-1212x-9--9---|
Ab|-7x-7x-7x-77x-77x-7x-7-7-10-10-1010x-11-11--|
Db|--------------------------------------------|
                        . .

Riff 3
eb|-------------------------------------|
Bb|-------------------------------------|
Gb|-------------------------------------|
Db|-2-2-2-2-5-5-5-5-11-11-11-11-7-7-7-7-|
Ab|-2-2-2-2-5-5-5-5-11-11-11-11-7-7-7-7-|
Db|-2-2-2-2-5-5-5-5-11-11-11-11-7-7-7-7-|

Riff 4
eb|--------------------------|
Bb|--------------------------|
Gb|--------------------------|
Db|-11------7------11------0-|
Ab|-11-(x8)-7-(x8)-11-(x7)-0-|
Db|-11------7------11------0-|

Riff 5
eb|-----------------------------|
Bb|-----------------------------|
Gb|-----------------------------|
Db|-2-2x-0-2-2x-0-2-2x-0-2-2x-0-|
Ab|-2-2x-0-2-2x-0-2-2x-0-2-2x-0-|
Db|-2-2x-0-2-2x-0-2-2x-0-2-2x-0-|

Riff 6
eb|-----------------------------------------------------------------------|
Bb|-----------------------------------------------------------------------|
Gb|-----------------------------------------------------------------------|
Db|-11-11-11-11-5-5-5-5-7-7-7-7-7-7-7-7-11-11-11-11-5-5-5-5-2-2x-0-2-2x-0-|
Ab|-11-11-11-11-5-5-5-5-7-7-7-7-7-7-7-7-11-11-11-11-5-5-5-5-2-2x-0-2-2x-0-|
Db|-11-11-11-11-5-5-5-5-7-7-7-7-7-7-7-7-11-11-11-11-5-5-5-5-2-2x-0-2-2x-0-|

cont.
eb|-------------------------------------|
Bb|-------------------------------------|
Gb|-------------------------------------|
Db|-11-11-11-11-5-5-5-5-7-7-7-7-7-7-7-7-|
Ab|-11-11-11-11-5-5-5-5-7-7-7-7-7-7-7-7-|
Db|-11-11-11-11-5-5-5-5-7-7-7-7-7-7-7-7-|

eb|-----------------------------------------|
Bb|-----------------------------------------|
Gb|-----------------------------------------|                             
Db|-11-11-11-11-11-11-11-11-5-5-5-5-5-5-5-5-|
Ab|-11-11-11-11-11-11-11-11-5-5-5-5-5-5-5-5-|
Db|-11-11-11-11-11-11-11-11-5-5-5-5-5-5-5-5-|

Intro:
riff 1
Verse:
riff 2
riff 1
Chorus:
riff 3 x3
riff 4
Bridge:
riff 1

Interlude:
riff 5
riff 6
            
Submit corrections

comments powered by Disqus
↑ Back to top | Kutless Tabs for Not What You See. Lyrics for acoustic guitar and electric guitar. Tablatures and chords are parodies/interpretations of the original songs. You may use it for private study, scholarship, research or language learning purposes only