>
 >
Legacy

Legacy Guitar Tabs

Kutless - Legacy chords, tabs, tablatures, lyrics

Guitar lessons | Add/correct | Request | Top 50 tabs Artists:  A B C D E F G H I J K L M N O P Q R S T U V W X Y Z 0-9

Legacy Guitar Tabs – Kutless

CD, Sheet music, Poster

Do you like Legacy? Share with your friends now
TabsTabs v2Tabs v3
Kutless - Legacy

Tuning: Drop C#
PM = Palm Mute
\ = Slide Down


Intro
d#|----------------------------|
A#|----------------------------|
F#|--------------5--5----------|
C#|-057-03455-0-05005----------|
G#|-057-03455-0-03003----------|
C#|-057-03455-0-0-00-----------|x3

d#|-------------10--10---|
A#|-------------10--10---|
F#|----------------------|
C#|-057 03455-00--00-----|
G#|-057-03455-00--00-----|
C#|-057-03455-00--00-----|
PM                ..


Verse
d#|--------------------------------------------|
A#|--------------------------------------------|
F#|--------------------------------------5--5--|
C#|-057-0345-0-0-3\0-00-3\0--057-0345-0-05005--|
G#|-057-0345-0-0-3\0-00-3\0--057-0345-0-03003--|
C#|-057-0345-0-0-3\0-00-3\0--057-0345-0-0-00---|x2
PM  ... ....   .     ..      ... .


Pre Chorus
d#|--------------------|
A#|--------------------|
F#|-3-----3--55555555--|
C#|-3--5--3--55555555--|
G#|-1--5--1--33333333--|
C#|----5---------------|


Chorus
d#|------------------------------------|
A#|------------------------------------|
F#|-7777777755552233333333-------------|
C#|-7777777755552233333333-0570781010--|
G#|-5555555533330011111111-0570781010--|
C#|------------------------0570781010--|x3


d#|----------------------------------|
A#|----------------------------------|
F#|-33333333333333335555555555555555-|
C#|-33333333333333335555555555555555-|
G#|-11111111111111113333333333333333-|
C#|----------------------------------|


Pre Verse
d#|----------------------------|
A#|----------------------------|
F#|--------------5--5----------|
C#|-057-03455-0-05005----------|
G#|-057-03455-0-03003----------|
C#|-057-03455-0-0-00-----------|

d#|-------------10--10---|
A#|-------------10--10---|
F#|----------------------|
C#|-057 03455-00--00-----|
G#|-057-03455-00--00-----|
C#|-057-03455-00--00-----|
PM                ..


Repeat Verse, Pre Chorus, and Chorus


Bridge
(hold out last note of chorus then play this)
d#|---------------|
A#|---------------|
F#|-5-3-2---------|
C#|-5-3-2-0--5-3--|
G#|-3-1-0-0--5-3--|
C#|-------0--5-3--|x2


d#|----------------|
A#|----------------|
F#|-5-7-10---------|
C#|-5-7-10-0--5-3--|
G#|-3-5-8--0--5-3--|
C#|--------0--5-3--|

d#|----------|
A#|----------|
F#|-5-3-2-7--|
C#|-5-3-2-7--|
G#|-3-1-0-5--|
C#|----------|


Repeat Intro with Wah-Wah, then the Chorus


Outro
d#|-----------------------------------|
A#|-----------------------------------|
F#|-----------------33-3333-55552222--|
C#|-00-0000-33-3333-33-3333-55552222--|
G#|-00-0000-33-3333-11-1111-33330000--|
C#|-00-0000-33-3333-------------------|


d#|-----------------------------------|
A#|-----------------------------------|
F#|-----------------33-3333-22225555--|
C#|-00-0000-33-3333-33-3333-22225555--|
G#|-00-0000-33-3333-11-1111-00003333--|
C#|-00-0000-33-3333-------------------|





Comments


Popular Kutless tabs & chords
The Feeling Bass Tabs
Winds Of Change 2 Bass Tabs
Your Tough 4&5 String Bass Tabs
Promise Of A Lifetime Chords
Promise Of A Lifetime 3 Chords
We Fall Down 1 Chords
Hearts Of The Innocent 5 Tabs
Mary Did You Know 1 Tabs
Overcoming Me Intro Tabs
Strong Tower Tabs


Song lyrics



↑ Back to top | Tablatures and chords are parodies/interpretations of the original songs. You may use it for private study, scholarship, research or language learning purposes only
© 2014 AZChords.com Contact us | Privacy policy | DMCA | Add/correct tabs | Request tabs | Top 50 tabs