>
 >
In Me

In Me Guitar Tabs

Kutless - In Me chords, tabs, tablatures, lyrics

Guitar lessons | Add/correct | Request | Top 50 tabs Artists:  A B C D E F G H I J K L M N O P Q R S T U V W X Y Z 0-9

In Me Guitar Tabs – Kutless

CD, Sheet music, Poster

Do you like In Me? Share with your friends now
Bass TabsBass Tabs v2Tabs
                             Kutless - In me  
Tuning: Drop-D
Comment: This tab is way more acurate
Key: | /  slide up
     | \  slide down
     |  harmonic
     | x  Mute note
     | .  Palm mute

Riff 1 gtr.2
e|---------|
B|-4-5-4-5-|
G|---------|
D|---------|
A|---------|
D|---------|

gtr.1 (in intro this part is on 8th repeat)
e|---------|
B|---------|
G|---------|
D|-----3---|
A|-----3---|
D|-----3---|

Riff 2 gtr.1
|-----------------------|
|-----------------------|
|-----------------------| 
|-3-5-3-3-----3-3-------|
|-3-5-3-3-----3-3-------|
|-3-5-3-3-----3-3-------|
  
gtr. 2
e|----------------------|
B|-----------------|
G|-------------------|
D|----------------------|
A|----------------------|
D|----------------------|
 

Riff 3 gtr.1
e|---------------------------|
B|---------------------------|
G|---------------------------| 
D|-3-5-5-5--1-1-1-1--3-3-3-3-| 
A|-3-5-5-5--1-1-1-1--3-3-3-3-|
D|-3-5-5-5--1-1-1-1--3-3-3-3-|
   . . . .  . . . .  . . . .

Riff 4 gtr.2
e|--------------------------|
B|--------------------------|
G|-7/8\7/8\7--7/8\7--3--5-2-| 
D|-x/x\x/x\x--x/x\x--x--x-x-|
A|-5/6\5/6\5--5/6\5--1--3-0-|
D|--------------------------|

gtr.1
e|--------------------------|
B|--------------------------|
G|--------------------------|
D|-5----------5------1--3---|
A|-5----------5------1--3---|
D|-5----------5------1--3---|


Riff 5 gtr.2
e|----------------------------------------|    
B|----------------------------------------|    
G|-----------------10-10-10-8-8-8-8-7-7-7-|  
D|-----------------x--x--x--x-x-x-x-x-x-x-|    
A|-----------------8--8--8--6-6-6-6-5-5-5-|    
D|----------------------------------------|    

gtr.1
e|----------------------------------------|
B|----------------------------------------|
G|----------------------------------------|
D|-5-5-5/8-8-8-8-3-3--3--3--3---3---3---3-|
A|-5-5-5/8-8-8-8-3-3--3--3--3---3---3---3-|
D|-5-5-5/8-8-8-8-3-3--3--3--3---3---3---3-|

riff 6 gtr.2
e|--------------------------------------------------|
B|--------------------------------------------------|
G|-7-7-7-7x--3-3-3-3x--5-5-5-5x--10-10-10-8-8-8-7-7-|
D|-x-x-x-xx--x-x-x-xx--x-x-x-xx--x--x--x--x-x-x-x-x-|
A|-5-5-5-5x--1-1-1-1x--3-3-3-3x--8--8--8--6-6-6-5-5-|
D|--------------------------------------------------|

gtr.1
e|--------------------------------------------------|
B|--------------------------------------------------|
G|--------------------------------------------------|
D|-5-5-5-5x--8-8-8-8x--3-3-3-3x--3--3--3--3---3---3-|
A|-5-5-5-5x--8-8-8-8x--3-3-3-3x--3--3--3--3---3---3-|
D|-5-5-5-5x--8-8-8-8x--3-3-3-3x--3--3--3--3---3---3-|

cont. gtr.1
e|----------------------------|
B|----------------------------|
G|----------------------------|
D|-5-5-5/8-8-8-8-3--3-5--5-3--|
A|-5-5-5/8-8-8-8-3--3-3--3-3--|
D|-5-5-5/8-8-8-8-3--3-3--3-3--|
                    .    

Riff 7 gtr.2
e|---------------------------|
B|---------------------------|
G|----------3-3-3-3--2-2-2-2-| 
D|----------x-x-x-x--x-x-x-x-|
A|----------1-1-1-1--0-0-0-0-|
D|---------------------------|

gtr. 1
e|---------------------------|
B|---------------------------|
G|---------------------------|
D|-3-5-5-5--1-1-1-1--3-3-3-3-|
A|-3-5-5-5--1-1-1-1--3-3-3-3-|
D|-3-5-5-5--1-1-1-1--3-3-3-3-|
   . . . .  . . . .  . . . .


Riff 8 gtr.1
e|--------------|    
B|--------------|   
G|--------------|   
D|-5-5-5--5-5-5-|   
A|-5-5-5--5-5-5-|   
D|-5-5-5--5-5-5-|   

Riff 9 gtr.2 
e|---------------------|
B|---------------|
G|---------------|
D|---------------------|
A|---------------------|
D|---------------------|

gtr.1
e|---------------------|
B|---------------------|
G|---------------5-----|
D|-----7-----------5---| 
A|---5---5-----3-------|
D|-5-------5-3-------3-|

riff 10 gtr.2
e|---------------------|
B|---------------|
G|---------------|
D|---------------------|
A|---------------------|
D|---------------------|

gtr.1
e|---------------------|
B|---------------------|
G|-----------------5---|
D|-------7-------------| 
A|----5---------3------|
D|-5---------3---------|

riff 11
e|---------|
B|---------|
G|---------|
D|-3-5-3-3-|
A|-3-5-3-3-|
D|-3-5-3-3-| 
   . . . .

Intro:
riff 1 x8
riff 2 x4
Verse 1:
riff 3 x2
riff 4 x2
Chorus:
riff 5 x2
riff 6
Verse 2:
riff 7 x2
riff 4 x2
Play chorus
Bridge:
riff 8 
riff 9 x4
riff 10 x2
Play chorus x2
Outro:
riff 2 x3
riff 11

That's all! 
Have fun

Max Andersen  





Comments


Popular Kutless tabs & chords
Carry Me To The Cross 2 Chords
Jesus Lord Of Heaven 1 Chords
Promise Of A Lifetime Chords
Sea Of Faces Chords
Shut Me Out Chords
It's Like Me Tabs
To Know That Youre Alive Tabs
Tonight 2 Tabs
Believer Ukulele
Changing World Ukulele


Song lyrics



↑ Back to top | Tablatures and chords are parodies/interpretations of the original songs. You may use it for private study, scholarship, research or language learning purposes only
© 2014 AZChords.com Contact us | Privacy policy | DMCA | Add/correct tabs | Request tabs | Top 50 tabs