» » »

Kutless, God Of Wonders Tabs (ver.1)

Artists:  A B C D E F G H I J K L M N O P Q R S T U V W X Y Z # 

God Of Wonders Tabs (ver.1)

Kutless Tabs
 Rating:
4.6/5 (9 votes)
God Of Wonders lessons Tabs too difficult? Try these video lessons and learn fast
1
                -------------------------------------------------------------------------------
-------------------------------------------------------------------------------

Tuning: Standard

Capo Third Fret

Intro and Vers:

e|--------------0-----------------------0--------------------0---------------|
B|--------10------10----10--------10------10----11-----11------11----11------|
G|-----10----10------10--------10----10------10-----------10------10---------|
D|---------------------------------------------------8-----------------------|
A|--8-----------------------10-----------------------------------------------|
E|---------------------------------------------------------------------------|

e|---------0-----------------------------------------------------------------|
B----11------11----11--------------------------------------------------------|
G|------10------10-----------------------------------------------------------|
D|--8------------------------------------------------------------------------|
A|---------------------------------------------------------------------------|
E|---------------------------------------------------------------------------|



Chorus
          Bb                          C                         D#

e|-------------------------|------------------------|------------------------| 
B|-------------------------|------------------------|------------------------|
G|-------------------------|-5--5--5--5--5--5--5--5-|-8--8--8--8--8--8--8--8-|
D|--8--8--8--8--8--8--8--8-|-5--5--5--5--5--5--5--5-|-8--8--8--8--8--8--8--8-|
A|--8--8--8--8--8--8--8--8-|-3--3--3--3--3--3--3--3-|-6--6--6--6--6--6--6--6-|
E|--6--6--6--6--6--6--6--6-|------------------------|------------------------|
 
           G

e|-------------------------|----------|--------------------------------------|
B|-------------------------|----------|--------------------------------------|
G|-------------------------|--15--15--|--------------------------------------|
D|--5--5--5--5--5--5--5--5-|--13--13--|--------------------------------------|
A|--5--5--5--5--5--5--5--5-|----------|--------------------------------------|
E|--3--3--3--3--3--3--3--3-|----------|--------------------------------------|


Chorus 

Bb C D# G
Bb C D# G

The Part with Lord of Heaven and earth

e|---------------------------------------------------------------------------|
B|--------3------------------------------------------------------------------|
G|------0---0------------2--0------------------------------------------------|
D|----2--------2------0------------------------------------------------------|
A|--3------------------------------------------------------------------------|
E|---------------------------------------------------------------------------|

Bridge

            G                    Bb          C 

e|-------------------------|------------|------------|
B|-------------------------|------------|------------|
G|-------------------------|------------|-5--5--5--5-|
D|--5--5--5--5--5--5--5--5-|-8--8--8--8-|-5--5--5--5-|
A|--5--5--5--5--5--5--5--5-|-8--8--8--8-|-3--3--3--3-|
E|--3--3--3--3--3--3--3--3-|-6--6--6--6-|------------|


Guitar 2 at the end of the bridge and in the last Chorus

e|--------------------------------------|------------------------------------|
B|--------------------18-18-18-18-18-18-|------------------------------------|
G|--14-14-14-15-15-15-------------------|-14-14-14-15-15-15-17-17-17-17b17-17|
D|--------------------------------------|------------------------------------|
A|--------------------------------------|------------------------------------|
E|--------------------------------------|------------------------------------|
            
Submit corrections

comments powered by Disqus
↑ Back to top | Kutless Tabs for God Of Wonders. Lyrics for acoustic guitar and electric guitar. 1 Tablatures and chords are parodies/interpretations of the original songs. You may use it for private study, scholarship, research or language learning purposes only